  0
SECTION
  2
HEADER
  9
$ACADVER
  1
AC1024
  9
$ACADMAINTVER
 70
    63
  9
$DWGCODEPAGE
  3
ANSI_932
  9
$LASTSAVEDBY
  1
takaaki.hirami
  9
$INSBASE
 10
0.0
 20
0.0
 30
0.0
  9
$EXTMIN
 10
-2155.309672424404
 20
-637.6317126292637
 30
0.0
  9
$EXTMAX
 10
-1468.545204204239
 20
387.0232660595832
 30
0.0
  9
$LIMMIN
 10
0.0
 20
0.0
  9
$LIMMAX
 10
420.0
 20
297.0
  9
$ORTHOMODE
 70
     0
  9
$REGENMODE
 70
     1
  9
$FILLMODE
 70
     1
  9
$QTEXTMODE
 70
     0
  9
$MIRRTEXT
 70
     1
  9
$LTSCALE
 40
1.0
  9
$ATTMODE
 70
     1
  9
$TEXTSIZE
 40
2.5
  9
$TRACEWID
 40
1.0
  9
$TEXTSTYLE
  7
KANJI
  9
$CLAYER
  8
2寸法線
  9
$CELTYPE
  6
ByLayer
  9
$CECOLOR
 62
   256
  9
$CELTSCALE
 40
1.0
  9
$DISPSILH
 70
     0
  9
$DIMSCALE
 40
0.0
  9
$DIMASZ
 40
1.8
  9
$DIMEXO
 40
1.0
  9
$DIMDLI
 40
0.0
  9
$DIMRND
 40
0.0
  9
$DIMDLE
 40
0.0
  9
$DIMEXE
 40
1.0
  9
$DIMTP
 40
0.0
  9
$DIMTM
 40
0.0
  9
$DIMTXT
 40
2.5
  9
$DIMCEN
 40
0.0
  9
$DIMTSZ
 40
0.0
  9
$DIMTOL
 70
     0
  9
$DIMLIM
 70
     0
  9
$DIMTIH
 70
     0
  9
$DIMTOH
 70
     0
  9
$DIMSE1
 70
     0
  9
$DIMSE2
 70
     0
  9
$DIMTAD
 70
     1
  9
$DIMZIN
 70
     8
  9
$DIMBLK
  1

  9
$DIMASO
 70
     1
  9
$DIMSHO
 70
     1
  9
$DIMPOST
  1

  9
$DIMAPOST
  1

  9
$DIMALT
 70
     0
  9
$DIMALTD
 70
     2
  9
$DIMALTF
 40
25.4
  9
$DIMLFAC
 40
1.0
  9
$DIMTOFL
 70
     1
  9
$DIMTVP
 40
0.0
  9
$DIMTIX
 70
     0
  9
$DIMSOXD
 70
     0
  9
$DIMSAH
 70
     1
  9
$DIMBLK1
  1
2
  9
$DIMBLK2
  1
2
  9
$DIMSTYLE
  2
M
  9
$DIMCLRD
 70
     0
  9
$DIMCLRE
 70
     0
  9
$DIMCLRT
 70
     0
  9
$DIMTFAC
 40
1.0
  9
$DIMGAP
 40
0.5
  9
$DIMJUST
 70
     0
  9
$DIMSD1
 70
     0
  9
$DIMSD2
 70
     0
  9
$DIMTOLJ
 70
     1
  9
$DIMTZIN
 70
     0
  9
$DIMALTZ
 70
     0
  9
$DIMALTTZ
 70
     0
  9
$DIMUPT
 70
     0
  9
$DIMDEC
 70
     4
  9
$DIMTDEC
 70
     4
  9
$DIMALTU
 70
     2
  9
$DIMALTTD
 70
     2
  9
$DIMTXSTY
  7
STANDARD
  9
$DIMAUNIT
 70
     0
  9
$DIMADEC
 70
     0
  9
$DIMALTRND
 40
0.0
  9
$DIMAZIN
 70
     0
  9
$DIMDSEP
 70
    46
  9
$DIMATFIT
 70
     3
  9
$DIMFRAC
 70
     0
  9
$DIMLDRBLK
  1
2
  9
$DIMLUNIT
 70
     2
  9
$DIMLWD
 70
    -2
  9
$DIMLWE
 70
    -2
  9
$DIMTMOVE
 70
     0
  9
$DIMFXL
 40
1.0
  9
$DIMFXLON
 70
     0
  9
$DIMJOGANG
 40
0.7853981633974483
  9
$DIMTFILL
 70
     0
  9
$DIMTFILLCLR
 70
     0
  9
$DIMARCSYM
 70
     0
  9
$DIMLTYPE
  6

  9
$DIMLTEX1
  6

  9
$DIMLTEX2
  6

  9
$DIMTXTDIRECTION
 70
     0
  9
$LUNITS
 70
     2
  9
$LUPREC
 70
     3
  9
$SKETCHINC
 40
1.0
  9
$FILLETRAD
 40
0.0
  9
$AUNITS
 70
     0
  9
$AUPREC
 70
     1
  9
$MENU
  1
.
  9
$ELEVATION
 40
0.0
  9
$PELEVATION
 40
0.0
  9
$THICKNESS
 40
0.0
  9
$LIMCHECK
 70
     0
  9
$CHAMFERA
 40
10.0
  9
$CHAMFERB
 40
10.0
  9
$CHAMFERC
 40
0.0
  9
$CHAMFERD
 40
0.0
  9
$SKPOLY
 70
     0
  9
$TDCREATE
 40
2453462.486800301
  9
$TDUCREATE
 40
2453462.111800301
  9
$TDUPDATE
 40
2458040.369219641
  9
$TDUUPDATE
 40
2458039.994219642
  9
$TDINDWG
 40
0.3239368287
  9
$TDUSRTIMER
 40
0.3239362847
  9
$USRTIMER
 70
     1
  9
$ANGBASE
 50
0.0
  9
$ANGDIR
 70
     0
  9
$PDMODE
 70
     0
  9
$PDSIZE
 40
0.0
  9
$PLINEWID
 40
0.0
  9
$SPLFRAME
 70
     0
  9
$SPLINETYPE
 70
     6
  9
$SPLINESEGS
 70
     8
  9
$HANDSEED
  5
319B
  9
$SURFTAB1
 70
     6
  9
$SURFTAB2
 70
     6
  9
$SURFTYPE
 70
     6
  9
$SURFU
 70
     6
  9
$SURFV
 70
     6
  9
$UCSBASE
  2

  9
$UCSNAME
  2

  9
$UCSORG
 10
0.0
 20
0.0
 30
0.0
  9
$UCSXDIR
 10
1.0
 20
0.0
 30
0.0
  9
$UCSYDIR
 10
0.0
 20
1.0
 30
0.0
  9
$UCSORTHOREF
  2

  9
$UCSORTHOVIEW
 70
     0
  9
$UCSORGTOP
 10
0.0
 20
0.0
 30
0.0
  9
$UCSORGBOTTOM
 10
0.0
 20
0.0
 30
0.0
  9
$UCSORGLEFT
 10
0.0
 20
0.0
 30
0.0
  9
$UCSORGRIGHT
 10
0.0
 20
0.0
 30
0.0
  9
$UCSORGFRONT
 10
0.0
 20
0.0
 30
0.0
  9
$UCSORGBACK
 10
0.0
 20
0.0
 30
0.0
  9
$PUCSBASE
  2

  9
$PUCSNAME
  2

  9
$PUCSORG
 10
0.0
 20
0.0
 30
0.0
  9
$PUCSXDIR
 10
1.0
 20
0.0
 30
0.0
  9
$PUCSYDIR
 10
0.0
 20
1.0
 30
0.0
  9
$PUCSORTHOREF
  2

  9
$PUCSORTHOVIEW
 70
     0
  9
$PUCSORGTOP
 10
0.0
 20
0.0
 30
0.0
  9
$PUCSORGBOTTOM
 10
0.0
 20
0.0
 30
0.0
  9
$PUCSORGLEFT
 10
0.0
 20
0.0
 30
0.0
  9
$PUCSORGRIGHT
 10
0.0
 20
0.0
 30
0.0
  9
$PUCSORGFRONT
 10
0.0
 20
0.0
 30
0.0
  9
$PUCSORGBACK
 10
0.0
 20
0.0
 30
0.0
  9
$USERI1
 70
     0
  9
$USERI2
 70
     0
  9
$USERI3
 70
     0
  9
$USERI4
 70
     0
  9
$USERI5
 70
     0
  9
$USERR1
 40
0.0
  9
$USERR2
 40
0.0
  9
$USERR3
 40
0.0
  9
$USERR4
 40
0.0
  9
$USERR5
 40
0.0
  9
$WORLDVIEW
 70
     1
  9
$SHADEDGE
 70
     3
  9
$SHADEDIF
 70
    70
  9
$TILEMODE
 70
     1
  9
$MAXACTVP
 70
    48
  9
$PINSBASE
 10
0.0
 20
0.0
 30
0.0
  9
$PLIMCHECK
 70
     0
  9
$PEXTMIN
 10
1.000000000000000E+20
 20
1.000000000000000E+20
 30
1.000000000000000E+20
  9
$PEXTMAX
 10
-1.000000000000000E+20
 20
-1.000000000000000E+20
 30
-1.000000000000000E+20
  9
$PLIMMIN
 10
0.0
 20
0.0
  9
$PLIMMAX
 10
420.0
 20
297.0
  9
$UNITMODE
 70
     0
  9
$VISRETAIN
 70
     1
  9
$PLINEGEN
 70
     0
  9
$PSLTSCALE
 70
     1
  9
$TREEDEPTH
 70
  3020
  9
$CMLSTYLE
  2
Standard
  9
$CMLJUST
 70
     0
  9
$CMLSCALE
 40
1.0
  9
$PROXYGRAPHICS
 70
     1
  9
$MEASUREMENT
 70
     0
  9
$CELWEIGHT
370
    -1
  9
$ENDCAPS
280
     0
  9
$JOINSTYLE
280
     0
  9
$LWDISPLAY
290
     0
  9
$INSUNITS
 70
     0
  9
$HYPERLINKBASE
  1

  9
$STYLESHEET
  1
INABA-CAD-Canon.ctb
  9
$XEDIT
290
     1
  9
$CEPSNTYPE
380
     0
  9
$PSTYLEMODE
290
     1
  9
$FINGERPRINTGUID
  2
{1A2E6D33-5A93-49EA-8BEF-0164C03B4062}
  9
$VERSIONGUID
  2
{99DD1618-2E96-47FA-B0F7-7C6F93161B8A}
  9
$EXTNAMES
290
     1
  9
$PSVPSCALE
 40
0.0
  9
$OLESTARTUP
290
     0
  9
$SORTENTS
280
   127
  9
$INDEXCTL
280
     0
  9
$HIDETEXT
280
     0
  9
$XCLIPFRAME
280
     2
  9
$HALOGAP
280
     0
  9
$OBSCOLOR
 70
   257
  9
$OBSLTYPE
280
     0
  9
$INTERSECTIONDISPLAY
280
     0
  9
$INTERSECTIONCOLOR
 70
   257
  9
$DIMASSOC
280
     1
  9
$PROJECTNAME
  1

  9
$CAMERADISPLAY
290
     0
  9
$LENSLENGTH
 40
50.0
  9
$CAMERAHEIGHT
 40
0.0
  9
$STEPSPERSEC
 40
2.0
  9
$STEPSIZE
 40
6.0
  9
$3DDWFPREC
 40
2.0
  9
$PSOLWIDTH
 40
0.25
  9
$PSOLHEIGHT
 40
4.0
  9
$LOFTANG1
 40
1.570796326794896
  9
$LOFTANG2
 40
1.570796326794896
  9
$LOFTMAG1
 40
0.0
  9
$LOFTMAG2
 40
0.0
  9
$LOFTPARAM
 70
     7
  9
$LOFTNORMALS
280
     1
  9
$LATITUDE
 40
37.795
  9
$LONGITUDE
 40
-122.394
  9
$NORTHDIRECTION
 40
0.0
  9
$TIMEZONE
 70
 -8000
  9
$LIGHTGLYPHDISPLAY
280
     1
  9
$TILEMODELIGHTSYNCH
280
     1
  9
$CMATERIAL
347
C59
  9
$SOLIDHIST
280
     0
  9
$SHOWHIST
280
     1
  9
$DWFFRAME
280
     2
  9
$DGNFRAME
280
     0
  9
$REALWORLDSCALE
290
     1
  9
$INTERFERECOLOR
 62
     1
  9
$INTERFEREOBJVS
345
C7B
  9
$INTERFEREVPVS
346
C78
  9
$CSHADOW
280
     0
  9
$SHADOWPLANELOCATION
 40
0.0
  0
ENDSEC
  0
SECTION
  2
CLASSES
  0
CLASS
  1
ACDBDICTIONARYWDFLT
  2
AcDbDictionaryWithDefault
  3
ObjectDBX Classes
 90
        0
 91
        1
280
     0
281
     0
  0
CLASS
  1
DICTIONARYVAR
  2
AcDbDictionaryVar
  3
ObjectDBX Classes
 90
        0
 91
       11
280
     0
281
     0
  0
CLASS
  1
MATERIAL
  2
AcDbMaterial
  3
ObjectDBX Classes
 90
     1153
 91
        3
280
     0
281
     0
  0
CLASS
  1
VISUALSTYLE
  2
AcDbVisualStyle
  3
ObjectDBX Classes
 90
     4095
 91
       24
280
     0
281
     0
  0
CLASS
  1
TABLESTYLE
  2
AcDbTableStyle
  3
ObjectDBX Classes
 90
     4095
 91
        1
280
     0
281
     0
  0
CLASS
  1
SCALE
  2
AcDbScale
  3
ObjectDBX Classes
 90
     1153
 91
       17
280
     0
281
     0
  0
CLASS
  1
MLEADERSTYLE
  2
AcDbMLeaderStyle
  3
ACDB_MLEADERSTYLE_CLASS
 90
     4095
 91
        1
280
     0
281
     0
  0
CLASS
  1
SORTENTSTABLE
  2
AcDbSortentsTable
  3
ObjectDBX Classes
 90
        0
 91
        3
280
     0
281
     0
  0
CLASS
  1
CELLSTYLEMAP
  2
AcDbCellStyleMap
  3
ObjectDBX Classes
 90
     1152
 91
        7
280
     0
281
     0
  0
ENDSEC
  0
SECTION
  2
TABLES
  0
TABLE
  2
VPORT
  5
2CA
102
{ACAD_XDICTIONARY
360
17D6
102
}
330
0
100
AcDbSymbolTable
 70
     1
  0
VPORT
  5
C53
330
2CA
100
AcDbSymbolTableRecord
100
AcDbViewportTableRecord
  2
*Active
 70
     0
 10
0.0
 20
0.0
 11
1.0
 21
1.0
 12
-1625.219092560931
 22
-302.6372287798429
 13
0.0
 23
0.0
 14
10.0
 24
10.0
 15
10.0
 25
10.0
 16
0.0
 26
0.0
 36
1.0
 17
0.0
 27
0.0
 37
0.0
 40
293.113420256012
 41
2.563587684069611
 42
50.0
 43
0.0
 44
0.0
 50
0.0
 51
0.0
 71
     0
 72
   100
 73
     1
 74
     1
 75
     0
 76
     0
 77
     0
 78
     0
281
     0
 65
     1
110
0.0
120
0.0
130
0.0
111
1.0
121
0.0
131
0.0
112
0.0
122
1.0
132
0.0
 79
     0
146
0.0
348
C77
 60
     3
 61
     5
292
     1
282
     1
141
0.0
142
0.0
 63
   250
421
  3355443
1001
ACAD_NAV_VCDISPLAY
1070
     3
  0
ENDTAB
  0
TABLE
  2
LTYPE
  5
2C7
330
0
100
AcDbSymbolTable
 70
     3
  0
LTYPE
  5
2D5
330
2C7
100
AcDbSymbolTableRecord
100
AcDbLinetypeTableRecord
  2
ByBlock
 70
     0
  3

 72
    65
 73
     0
 40
0.0
  0
LTYPE
  5
2D6
330
2C7
100
AcDbSymbolTableRecord
100
AcDbLinetypeTableRecord
  2
ByLayer
 70
     0
  3

 72
    65
 73
     0
 40
0.0
  0
LTYPE
  5
2D7
330
2C7
100
AcDbSymbolTableRecord
100
AcDbLinetypeTableRecord
  2
CONTINUOUS
 70
     0
  3
Solid line
 72
    65
 73
     0
 40
0.0
  0
LTYPE
  5
2E9
330
2C7
100
AcDbSymbolTableRecord
100
AcDbLinetypeTableRecord
  2
PHANTOM
 70
     0
  3
Phantom ______  __  __  ______  __  __  ______
 72
    65
 73
     6
 40
63.5
 49
31.75
 74
     0
 49
-6.349999999999997
 74
     0
 49
6.349999999999997
 74
     0
 49
-6.349999999999997
 74
     0
 49
6.349999999999997
 74
     0
 49
-6.349999999999997
 74
     0
  0
LTYPE
  5
194D
330
2C7
100
AcDbSymbolTableRecord
100
AcDbLinetypeTableRecord
  2
CENTER
 70
     0
  3
Center ____ _ ____ _ ____ _ ____ _ ____ _ ____
 72
    65
 73
     4
 40
50.8
 49
31.75
 74
     0
 49
-6.349999999999999
 74
     0
 49
6.349999999999999
 74
     0
 49
-6.349999999999999
 74
     0
  0
ENDTAB
  0
TABLE
  2
LAYER
  5
2C4
102
{ACAD_XDICTIONARY
360
13CB
102
}
330
0
100
AcDbSymbolTable
 70
     7
  0
LAYER
  5
2D2
102
{ACAD_XDICTIONARY
360
CA3
102
}
330
2C4
100
AcDbSymbolTableRecord
100
AcDbLayerTableRecord
  2
0
 70
     0
 62
     7
  6
CONTINUOUS
370
    -3
390
2D1
347
C69
  0
LAYER
  5
2E4
102
{ACAD_XDICTIONARY
360
CA5
102
}
330
2C4
100
AcDbSymbolTableRecord
100
AcDbLayerTableRecord
  2
2寸法線
 70
     0
 62
     2
  6
CONTINUOUS
370
    -3
390
2D1
347
C69
  0
LAYER
  5
2EA
102
{ACAD_XDICTIONARY
360
CA7
102
}
330
2C4
100
AcDbSymbolTableRecord
100
AcDbLayerTableRecord
  2
1外形線
 70
     0
 62
     3
  6
CONTINUOUS
370
    -3
390
2D1
347
C69
  0
LAYER
  5
2EF
330
2C4
100
AcDbSymbolTableRecord
100
AcDbLayerTableRecord
  2
DEFPOINTS
 70
     0
 62
     7
  6
CONTINUOUS
290
     0
370
    -3
390
2D1
347
C69
  0
LAYER
  5
2F0
102
{ACAD_XDICTIONARY
360
CA9
102
}
330
2C4
100
AcDbSymbolTableRecord
100
AcDbLayerTableRecord
  2
C4
 70
     0
 62
     3
  6
CONTINUOUS
370
    -3
390
2D1
347
C69
  0
LAYER
  5
194E
102
{ACAD_XDICTIONARY
360
194F
102
}
330
2C4
100
AcDbSymbolTableRecord
100
AcDbLayerTableRecord
  2
3補助線
 70
     0
 62
     4
  6
CONTINUOUS
370
    -3
390
2D1
347
C69
  0
LAYER
  5
1CA0
102
{ACAD_XDICTIONARY
360
1CA1
102
}
330
2C4
100
AcDbSymbolTableRecord
100
AcDbLayerTableRecord
  2
SUNPOU
 70
     0
 62
     2
  6
CONTINUOUS
370
    -3
390
2D1
347
C69
  0
ENDTAB
  0
TABLE
  2
STYLE
  5
2C5
330
0
100
AcDbSymbolTable
 70
     2
  0
STYLE
  5
2D3
330
2C5
100
AcDbSymbolTableRecord
100
AcDbTextStyleTableRecord
  2
STANDARD
 70
     0
 40
0.0
 41
1.0
 50
0.0
 71
     0
 42
2.5
  3
txt
  4

  0
STYLE
  5
2E5
330
2C5
100
AcDbSymbolTableRecord
100
AcDbTextStyleTableRecord
  2
KANJI
 70
     0
 40
0.0
 41
1.0
 50
0.0
 71
     0
 42
2.5
  3
simplex.shx
  4
bigfont.shx
  0
ENDTAB
  0
TABLE
  2
VIEW
  5
2C8
330
0
100
AcDbSymbolTable
 70
     0
  0
ENDTAB
  0
TABLE
  2
UCS
  5
2C9
330
0
100
AcDbSymbolTable
 70
     0
  0
ENDTAB
  0
TABLE
  2
APPID
  5
2CB
330
0
100
AcDbSymbolTable
 70
     6
  0
APPID
  5
2D4
330
2CB
100
AcDbSymbolTableRecord
100
AcDbRegAppTableRecord
  2
ACAD
 70
     0
  0
APPID
  5
CAB
330
2CB
100
AcDbSymbolTableRecord
100
AcDbRegAppTableRecord
  2
ACAD_NAV_VCDISPLAY
 70
     0
  0
APPID
  5
CD2
330
2CB
100
AcDbSymbolTableRecord
100
AcDbRegAppTableRecord
  2
ACAD_DSTYLE_DIMRADIAL_EXTENSION
 70
     0
  0
APPID
  5
D0E
330
2CB
100
AcDbSymbolTableRecord
100
AcDbRegAppTableRecord
  2
ACAD_EXEMPT_FROM_CAD_STANDARDS
 70
     0
  0
APPID
  5
13D3
330
2CB
100
AcDbSymbolTableRecord
100
AcDbRegAppTableRecord
  2
ACAD_PSEXT
 70
     0
  0
APPID
  5
180F
330
2CB
100
AcDbSymbolTableRecord
100
AcDbRegAppTableRecord
  2
ACAD_MLEADERVER
 70
     0
  0
ENDTAB
  0
TABLE
  2
DIMSTYLE
  5
2CC
330
0
100
AcDbSymbolTable
 70
     4
100
AcDbDimStyleTable
 71
     1
340
2F4
  0
DIMSTYLE
105
2F2
330
2CC
100
AcDbSymbolTableRecord
100
AcDbDimStyleTableRecord
  2
STANDARD
 70
     0
 73
     0
 74
     0
172
     1
271
     3
272
     3
279
     2
284
     8
285
     8
286
     8
340
2E5
  0
DIMSTYLE
105
2F4
330
2CC
100
AcDbSymbolTableRecord
100
AcDbDimStyleTableRecord
  2
M
 70
     0
 40
0.0
 41
2.0
 42
1.0
 43
0.0
 44
1.0
 73
     0
 74
     0
 77
     1
 78
     8
140
2.5
141
0.0
147
0.5
172
     1
173
     1
271
     3
272
     3
279
     2
284
     8
285
     8
286
     8
340
2E5
  0
DIMSTYLE
105
1623
330
2CC
100
AcDbSymbolTableRecord
100
AcDbDimStyleTableRecord
  2
ISO-25
 70
     0
 41
2.5
 42
0.625
 43
3.75
 44
1.25
 73
     0
 74
     0
 77
     1
 78
     8
140
2.5
141
2.5
143
0.03937007874016
147
0.625
171
     3
172
     1
271
     2
272
     2
274
     3
283
     0
284
     8
340
2D3
  0
DIMSTYLE
105
1950
330
2CC
100
AcDbSymbolTableRecord
100
AcDbDimStyleTableRecord
  2
M$4
 70
     0
 40
0.0
 41
2.0
 42
1.0
 43
0.0
 44
1.0
 73
     0
 77
     1
 78
     8
140
2.5
141
0.0
147
0.5
173
     1
284
     8
340
2E5
341
2FF
343
2FF
344
2FF
  0
ENDTAB
  0
TABLE
  2
BLOCK_RECORD
  5
2C3
330
0
100
AcDbSymbolTable
 70
    83
  0
BLOCK_RECORD
  5
2E0
102
{ACAD_XDICTIONARY
360
12DF
102
}
330
2C3
100
AcDbSymbolTableRecord
100
AcDbBlockTableRecord
  2
*Model_Space
340
2E3
 70
     0
280
     1
281
     0
  0
BLOCK_RECORD
  5
2DC
330
2C3
100
AcDbSymbolTableRecord
100
AcDbBlockTableRecord
  2
*Paper_Space
340
2DF
 70
     0
280
     1
281
     0
  0
BLOCK_RECORD
  5
2FF
330
2C3
100
AcDbSymbolTableRecord
100
AcDbBlockTableRecord
  2
2
340
0
102
{BLKREFS
331
30CA
331
30CB
331
30D6
331
30D7
331
30E2
331
30E3
331
30EE
331
30EF
331
3178
331
3179
331
3181
331
3182
331
2EBA
331
2EBB
331
2EC5
331
2EC6
331
2ECF
331
2ED0
331
2ED9
331
2EDA
331
2EE3
331
2EE4
331
2EEC
331
2EED
331
2E8C
331
2E8D
331
2E95
331
2E96
331
2E9E
331
2E9F
331
2EA7
331
2EA8
331
2EB0
331
2EB1
331
2920
331
2921
331
292C
331
292D
331
2939
331
293A
331
2947
331
2948
331
2954
331
2955
331
2961
331
2962
331
296E
331
296F
331
297A
331
297B
331
1B09
331
1B0A
331
1B12
331
1B13
331
1B1D
331
1B1E
331
1B84
331
1B85
331
1B8D
331
1B8E
331
151B
331
151C
331
1524
331
1525
331
152D
331
152E
331
1536
331
1537
331
153F
331
1540
331
1641
331
1642
331
164A
331
164B
331
1653
331
1654
331
165C
331
165D
331
1666
331
1667
331
318A
331
318B
331
3193
331
3194
331
1671
331
1672
331
167B
331
167C
331
1685
331
1686
331
168F
331
1690
331
16E1
331
16E2
331
28FC
331
28FD
331
2908
331
2909
331
2914
331
2915
102
}
 70
     0
280
     1
281
     0
  0
BLOCK_RECORD
  5
301
330
2C3
100
AcDbSymbolTableRecord
100
AcDbBlockTableRecord
  2
*U1
340
0
102
{BLKREFS
331
131
102
}
 70
     0
280
     1
281
     0
  0
BLOCK_RECORD
  5
CB9
330
2C3
100
AcDbSymbolTableRecord
100
AcDbBlockTableRecord
  2
*D2
340
0
 70
     0
280
     1
281
     0
  0
BLOCK_RECORD
  5
CC6
330
2C3
100
AcDbSymbolTableRecord
100
AcDbBlockTableRecord
  2
*D3
340
0
 70
     0
280
     1
281
     0
  0
BLOCK_RECORD
  5
CE8
330
2C3
100
AcDbSymbolTableRecord
100
AcDbBlockTableRecord
  2
*D4
340
0
 70
     0
280
     1
281
     0
  0
BLOCK_RECORD
  5
CF5
330
2C3
100
AcDbSymbolTableRecord
100
AcDbBlockTableRecord
  2
*D5
340
0
 70
     0
280
     1
281
     0
  0
BLOCK_RECORD
  5
D02
330
2C3
100
AcDbSymbolTableRecord
100
AcDbBlockTableRecord
  2
*D6
340
0
 70
     0
280
     1
281
     0
  0
BLOCK_RECORD
  5
11D3
330
2C3
100
AcDbSymbolTableRecord
100
AcDbBlockTableRecord
  2
*D7
340
0
 70
     0
280
     1
281
     0
  0
BLOCK_RECORD
  5
11DF
330
2C3
100
AcDbSymbolTableRecord
100
AcDbBlockTableRecord
  2
*D8
340
0
 70
     0
280
     1
281
     0
  0
BLOCK_RECORD
  5
11FD
330
2C3
100
AcDbSymbolTableRecord
100
AcDbBlockTableRecord
  2
*D9
340
0
 70
     0
280
     1
281
     0
  0
BLOCK_RECORD
  5
1209
330
2C3
100
AcDbSymbolTableRecord
100
AcDbBlockTableRecord
  2
*D10
340
0
 70
     0
280
     1
281
     0
  0
BLOCK_RECORD
  5
1215
330
2C3
100
AcDbSymbolTableRecord
100
AcDbBlockTableRecord
  2
*D11
340
0
 70
     0
280
     1
281
     0
  0
BLOCK_RECORD
  5
12E2
330
2C3
100
AcDbSymbolTableRecord
100
AcDbBlockTableRecord
  2
*D12
340
0
 70
     0
280
     1
281
     0
  0
BLOCK_RECORD
  5
132D
330
2C3
100
AcDbSymbolTableRecord
100
AcDbBlockTableRecord
  2
*D13
340
0
 70
     0
280
     1
281
     0
  0
BLOCK_RECORD
  5
1362
330
2C3
100
AcDbSymbolTableRecord
100
AcDbBlockTableRecord
  2
*D14
340
0
 70
     0
280
     1
281
     0
  0
BLOCK_RECORD
  5
137E
330
2C3
100
AcDbSymbolTableRecord
100
AcDbBlockTableRecord
  2
*D15
340
0
 70
     0
280
     1
281
     0
  0
BLOCK_RECORD
  5
13E6
330
2C3
100
AcDbSymbolTableRecord
100
AcDbBlockTableRecord
  2
*D16
340
0
 70
     0
280
     1
281
     0
  0
BLOCK_RECORD
  5
1915
330
2C3
100
AcDbSymbolTableRecord
100
AcDbBlockTableRecord
  2
INABAロゴ
340
0
 70
     0
280
     1
281
     0
  0
BLOCK_RECORD
  5
1A78
330
2C3
100
AcDbSymbolTableRecord
100
AcDbBlockTableRecord
  2
*D18
340
0
 70
     0
280
     1
281
     0
  0
BLOCK_RECORD
  5
1A84
330
2C3
100
AcDbSymbolTableRecord
100
AcDbBlockTableRecord
  2
*D19
340
0
 70
     0
280
     1
281
     0
  0
BLOCK_RECORD
  5
1A90
330
2C3
100
AcDbSymbolTableRecord
100
AcDbBlockTableRecord
  2
*D20
340
0
 70
     0
280
     1
281
     0
  0
BLOCK_RECORD
  5
1AC9
330
2C3
100
AcDbSymbolTableRecord
100
AcDbBlockTableRecord
  2
*D21
340
0
 70
     0
280
     1
281
     0
  0
BLOCK_RECORD
  5
1B75
330
2C3
100
AcDbSymbolTableRecord
100
AcDbBlockTableRecord
  2
*D22
340
0
 70
     0
280
     1
281
     0
  0
BLOCK_RECORD
  5
2420
330
2C3
100
AcDbSymbolTableRecord
100
AcDbBlockTableRecord
  2
*D24
340
0
 70
     0
280
     1
281
     0
  0
BLOCK_RECORD
  5
2784
330
2C3
100
AcDbSymbolTableRecord
100
AcDbBlockTableRecord
  2
*D26
340
0
 70
     0
280
     1
281
     0
  0
BLOCK_RECORD
  5
279B
330
2C3
100
AcDbSymbolTableRecord
100
AcDbBlockTableRecord
  2
*D27
340
0
 70
     0
280
     1
281
     0
  0
BLOCK_RECORD
  5
27A7
330
2C3
100
AcDbSymbolTableRecord
100
AcDbBlockTableRecord
  2
*D28
340
0
 70
     0
280
     1
281
     0
  0
BLOCK_RECORD
  5
28C5
330
2C3
100
AcDbSymbolTableRecord
100
AcDbBlockTableRecord
  2
*D30
340
0
 70
     0
280
     1
281
     0
  0
BLOCK_RECORD
  5
28D1
330
2C3
100
AcDbSymbolTableRecord
100
AcDbBlockTableRecord
  2
*D31
340
0
 70
     0
280
     1
281
     0
  0
BLOCK_RECORD
  5
28F1
330
2C3
100
AcDbSymbolTableRecord
100
AcDbBlockTableRecord
  2
*U32
340
0
102
{BLKREFS
331
131
102
}
 70
     0
280
     1
281
     0
  0
BLOCK_RECORD
  5
28F7
330
2C3
100
AcDbSymbolTableRecord
100
AcDbBlockTableRecord
  2
*D33
340
0
 70
     0
280
     1
281
     0
  0
BLOCK_RECORD
  5
2903
330
2C3
100
AcDbSymbolTableRecord
100
AcDbBlockTableRecord
  2
*D34
340
0
 70
     0
280
     1
281
     0
  0
BLOCK_RECORD
  5
290F
330
2C3
100
AcDbSymbolTableRecord
100
AcDbBlockTableRecord
  2
*D35
340
0
 70
     0
280
     1
281
     0
  0
BLOCK_RECORD
  5
291B
330
2C3
100
AcDbSymbolTableRecord
100
AcDbBlockTableRecord
  2
*D36
340
0
 70
     0
280
     1
281
     0
  0
BLOCK_RECORD
  5
2927
330
2C3
100
AcDbSymbolTableRecord
100
AcDbBlockTableRecord
  2
*D37
340
0
 70
     0
280
     1
281
     0
  0
BLOCK_RECORD
  5
2933
330
2C3
100
AcDbSymbolTableRecord
100
AcDbBlockTableRecord
  2
*D38
340
0
 70
     0
280
     1
281
     0
  0
BLOCK_RECORD
  5
2940
330
2C3
100
AcDbSymbolTableRecord
100
AcDbBlockTableRecord
  2
*D39
340
0
 70
     0
280
     1
281
     0
  0
BLOCK_RECORD
  5
294E
330
2C3
100
AcDbSymbolTableRecord
100
AcDbBlockTableRecord
  2
*D40
340
0
 70
     0
280
     1
281
     0
  0
BLOCK_RECORD
  5
295B
330
2C3
100
AcDbSymbolTableRecord
100
AcDbBlockTableRecord
  2
*D41
340
0
 70
     0
280
     1
281
     0
  0
BLOCK_RECORD
  5
2968
330
2C3
100
AcDbSymbolTableRecord
100
AcDbBlockTableRecord
  2
*D42
340
0
 70
     0
280
     1
281
     0
  0
BLOCK_RECORD
  5
2975
330
2C3
100
AcDbSymbolTableRecord
100
AcDbBlockTableRecord
  2
*D43
340
0
 70
     0
280
     1
281
     0
  0
BLOCK_RECORD
  5
2DFF
330
2C3
100
AcDbSymbolTableRecord
100
AcDbBlockTableRecord
  2
*D45
340
0
 70
     0
280
     1
281
     0
  0
BLOCK_RECORD
  5
2E0B
330
2C3
100
AcDbSymbolTableRecord
100
AcDbBlockTableRecord
  2
*D46
340
0
 70
     0
280
     1
281
     0
  0
BLOCK_RECORD
  5
2E17
330
2C3
100
AcDbSymbolTableRecord
100
AcDbBlockTableRecord
  2
*D47
340
0
 70
     0
280
     1
281
     0
  0
BLOCK_RECORD
  5
2E23
330
2C3
100
AcDbSymbolTableRecord
100
AcDbBlockTableRecord
  2
*D48
340
0
 70
     0
280
     1
281
     0
  0
BLOCK_RECORD
  5
2E2F
330
2C3
100
AcDbSymbolTableRecord
100
AcDbBlockTableRecord
  2
*D49
340
0
 70
     0
280
     1
281
     0
  0
BLOCK_RECORD
  5
2E3B
330
2C3
100
AcDbSymbolTableRecord
100
AcDbBlockTableRecord
  2
*D50
340
0
 70
     0
280
     1
281
     0
  0
BLOCK_RECORD
  5
2E48
330
2C3
100
AcDbSymbolTableRecord
100
AcDbBlockTableRecord
  2
*D51
340
0
 70
     0
280
     1
281
     0
  0
BLOCK_RECORD
  5
2E56
330
2C3
100
AcDbSymbolTableRecord
100
AcDbBlockTableRecord
  2
*D52
340
0
 70
     0
280
     1
281
     0
  0
BLOCK_RECORD
  5
2E63
330
2C3
100
AcDbSymbolTableRecord
100
AcDbBlockTableRecord
  2
*D53
340
0
 70
     0
280
     1
281
     0
  0
BLOCK_RECORD
  5
2E70
330
2C3
100
AcDbSymbolTableRecord
100
AcDbBlockTableRecord
  2
*D54
340
0
 70
     0
280
     1
281
     0
  0
BLOCK_RECORD
  5
2E7D
330
2C3
100
AcDbSymbolTableRecord
100
AcDbBlockTableRecord
  2
*D55
340
0
 70
     0
280
     1
281
     0
  0
BLOCK_RECORD
  5
2EF4
330
2C3
100
AcDbSymbolTableRecord
100
AcDbBlockTableRecord
  2
*D56
340
0
 70
     0
280
     1
281
     0
  0
BLOCK_RECORD
  5
2F00
330
2C3
100
AcDbSymbolTableRecord
100
AcDbBlockTableRecord
  2
*D57
340
0
 70
     0
280
     1
281
     0
  0
BLOCK_RECORD
  5
2F0C
330
2C3
100
AcDbSymbolTableRecord
100
AcDbBlockTableRecord
  2
*D58
340
0
 70
     0
280
     1
281
     0
  0
BLOCK_RECORD
  5
2F18
330
2C3
100
AcDbSymbolTableRecord
100
AcDbBlockTableRecord
  2
*D59
340
0
 70
     0
280
     1
281
     0
  0
BLOCK_RECORD
  5
2F24
330
2C3
100
AcDbSymbolTableRecord
100
AcDbBlockTableRecord
  2
*D60
340
0
 70
     0
280
     1
281
     0
  0
BLOCK_RECORD
  5
2F30
330
2C3
100
AcDbSymbolTableRecord
100
AcDbBlockTableRecord
  2
*D61
340
0
 70
     0
280
     1
281
     0
  0
BLOCK_RECORD
  5
2F3C
330
2C3
100
AcDbSymbolTableRecord
100
AcDbBlockTableRecord
  2
*D62
340
0
 70
     0
280
     1
281
     0
  0
BLOCK_RECORD
  5
2F48
330
2C3
100
AcDbSymbolTableRecord
100
AcDbBlockTableRecord
  2
*D63
340
0
 70
     0
280
     1
281
     0
  0
BLOCK_RECORD
  5
300C
330
2C3
100
AcDbSymbolTableRecord
100
AcDbBlockTableRecord
  2
*D65
340
0
 70
     0
280
     1
281
     0
  0
BLOCK_RECORD
  5
3018
330
2C3
100
AcDbSymbolTableRecord
100
AcDbBlockTableRecord
  2
*D66
340
0
 70
     0
280
     1
281
     0
  0
BLOCK_RECORD
  5
3024
330
2C3
100
AcDbSymbolTableRecord
100
AcDbBlockTableRecord
  2
*D67
340
0
 70
     0
280
     1
281
     0
  0
BLOCK_RECORD
  5
3030
330
2C3
100
AcDbSymbolTableRecord
100
AcDbBlockTableRecord
  2
*D68
340
0
 70
     0
280
     1
281
     0
  0
BLOCK_RECORD
  5
303C
330
2C3
100
AcDbSymbolTableRecord
100
AcDbBlockTableRecord
  2
*D69
340
0
 70
     0
280
     1
281
     0
  0
BLOCK_RECORD
  5
3048
330
2C3
100
AcDbSymbolTableRecord
100
AcDbBlockTableRecord
  2
*D70
340
0
 70
     0
280
     1
281
     0
  0
BLOCK_RECORD
  5
3054
330
2C3
100
AcDbSymbolTableRecord
100
AcDbBlockTableRecord
  2
*D71
340
0
 70
     0
280
     1
281
     0
  0
BLOCK_RECORD
  5
3060
330
2C3
100
AcDbSymbolTableRecord
100
AcDbBlockTableRecord
  2
*D72
340
0
 70
     0
280
     1
281
     0
  0
BLOCK_RECORD
  5
30BF
330
2C3
100
AcDbSymbolTableRecord
100
AcDbBlockTableRecord
  2
*U73
340
0
102
{BLKREFS
331
131
102
}
 70
     0
280
     1
281
     0
  0
BLOCK_RECORD
  5
30C5
330
2C3
100
AcDbSymbolTableRecord
100
AcDbBlockTableRecord
  2
*D74
340
0
 70
     0
280
     1
281
     0
  0
BLOCK_RECORD
  5
30D1
330
2C3
100
AcDbSymbolTableRecord
100
AcDbBlockTableRecord
  2
*D75
340
0
 70
     0
280
     1
281
     0
  0
BLOCK_RECORD
  5
30DD
330
2C3
100
AcDbSymbolTableRecord
100
AcDbBlockTableRecord
  2
*D76
340
0
 70
     0
280
     1
281
     0
  0
BLOCK_RECORD
  5
30E9
330
2C3
100
AcDbSymbolTableRecord
100
AcDbBlockTableRecord
  2
*D77
340
0
 70
     0
280
     1
281
     0
  0
BLOCK_RECORD
  5
3145
330
2C3
100
AcDbSymbolTableRecord
100
AcDbBlockTableRecord
  2
*D79
340
0
 70
     0
280
     1
281
     0
  0
BLOCK_RECORD
  5
3151
330
2C3
100
AcDbSymbolTableRecord
100
AcDbBlockTableRecord
  2
*D80
340
0
 70
     0
280
     1
281
     0
  0
BLOCK_RECORD
  5
315D
330
2C3
100
AcDbSymbolTableRecord
100
AcDbBlockTableRecord
  2
*D81
340
0
 70
     0
280
     1
281
     0
  0
BLOCK_RECORD
  5
3169
330
2C3
100
AcDbSymbolTableRecord
100
AcDbBlockTableRecord
  2
*D82
340
0
 70
     0
280
     1
281
     0
  0
ENDTAB
  0
ENDSEC
  0
SECTION
  2
BLOCKS
  0
BLOCK
  5
2E1
330
2E0
100
AcDbEntity
  8
0
100
AcDbBlockBegin
  2
*Model_Space
 70
     0
 10
0.0
 20
0.0
 30
0.0
  3
*Model_Space
  1

  0
ENDBLK
  5
2E2
330
2E0
100
AcDbEntity
  8
0
100
AcDbBlockEnd
  0
BLOCK
  5
2DD
330
2DC
100
AcDbEntity
 67
     1
  8
0
100
AcDbBlockBegin
  2
*Paper_Space
 70
     0
 10
0.0
 20
0.0
 30
0.0
  3
*Paper_Space
  1

  0
ENDBLK
  5
2DE
330
2DC
100
AcDbEntity
 67
     1
  8
0
100
AcDbBlockEnd
  0
BLOCK
  5
300
330
2FF
100
AcDbEntity
  8
0
100
AcDbBlockBegin
  2
2
 70
     0
 10
0.0
 20
0.0
 30
0.0
  3
2
  1

  0
INSERT
  5
131
330
2FF
100
AcDbEntity
  8
0
  6
Continuous
 62
     0
100
AcDbBlockReference
  2
*U1
 10
0.0
 20
0.0
 30
0.0
1001
ACAD
1002
{
1000
R14_HATCH_DATA
1000
131
1011
1.0
1021
0.0
1031
0.0
1011
0.0
1021
1.0
1031
0.0
1011
0.0
1021
0.0
1031
1.0
1040
0.0
1010
0.0
1020
0.0
1030
1.0
1000
SOLID
1070
     1
1070
     0
1071
        1
1071
        1
1071
        3
1070
     1
1040
-0.9999999999983517
1040
0.2679491924306774
1040
0.0
1040
0.0
1070
     1
1040
0.0
1040
0.0
1040
-0.9999999999983517
1040
-0.2679491924306765
1070
     1
1040
-0.9999999999983524
1040
-0.267949192430676
1040
-0.9999999999983524
1040
0.2679491924306774
1071
        0
1070
     0
1070
     1
1071
        1
1040
2.995745117231336
1040
-4.124946096263201
1040
0.0
1002
}
  0
ENDBLK
  5
132
330
2FF
100
AcDbEntity
  8
0
100
AcDbBlockEnd
  0
BLOCK
  5
309
330
301
100
AcDbEntity
  8
0
100
AcDbBlockBegin
  2
*U1
 70
     1
 10
0.0
 20
0.0
 30
0.0
  3
*U1
  1

  0
SOLID
  5
209
330
301
100
AcDbEntity
  8
0
  6
Continuous
 62
     0
100
AcDbTrace
 10
0.666666666665568
 20
0.0000000000000004
 30
0.0
 11
0.9999999999983517
 21
0.2679491924306774
 31
0.0
 12
0.0
 22
0.0
 32
0.0
 13
0.0
 23
0.0
 33
0.0
210
0.0
220
0.0
230
-1.0
  0
SOLID
  5
20A
330
301
100
AcDbEntity
  8
0
  6
Continuous
 62
     0
100
AcDbTrace
 10
0.666666666665568
 20
0.0000000000000004
 30
0.0
 11
0.0
 21
0.0
 31
0.0
 12
0.9999999999983524
 22
-0.267949192430676
 32
0.0
 13
0.9999999999983524
 23
-0.267949192430676
 33
0.0
210
0.0
220
0.0
230
-1.0
  0
SOLID
  5
20B
330
301
100
AcDbEntity
  8
0
  6
Continuous
 62
     0
100
AcDbTrace
 10
0.666666666665568
 20
0.0000000000000004
 30
0.0
 11
0.9999999999983524
 21
-0.267949192430676
 31
0.0
 12
0.9999999999983517
 22
0.2679491924306774
 32
0.0
 13
0.9999999999983517
 23
0.2679491924306774
 33
0.0
210
0.0
220
0.0
230
-1.0
  0
ENDBLK
  5
20D
330
301
100
AcDbEntity
  8
0
100
AcDbBlockEnd
  0
BLOCK
  5
CBA
330
CB9
100
AcDbEntity
  8
0
100
AcDbBlockBegin
  2
*D2
 70
     1
 10
0.0
 20
0.0
 30
0.0
  3
*D2
  1

  0
LINE
  5
16DE
330
CB9
100
AcDbEntity
  8
2寸法線
 62
     0
440
 16777216
370
    -2
100
AcDbLine
 10
658.5672913017908
 20
139.5992084573975
 30
0.0
 11
584.1891814076729
 21
139.5992084573975
 31
0.0
  0
LINE
  5
16DF
330
CB9
100
AcDbEntity
  8
2寸法線
 62
     0
440
 16777216
370
    -2
100
AcDbLine
 10
619.766956180095
 20
48.59920845739754
 30
0.0
 11
584.1891814076729
 21
48.59920845739755
 31
0.0
  0
LINE
  5
16E0
330
CB9
100
AcDbEntity
  8
2寸法線
 62
     0
440
 16777216
370
    -2
100
AcDbLine
 10
585.1891814076729
 20
137.7992084573975
 30
0.0
 11
585.1891814076729
 21
50.39920845739755
 31
0.0
  0
INSERT
  5
16E1
330
CB9
100
AcDbEntity
  8
2寸法線
 62
     0
440
 16777216
370
    -2
100
AcDbBlockReference
  2
2
 10
585.1891814076729
 20
139.5992084573975
 30
0.0
 41
1.8
 42
1.8
 43
1.8
 50
90.0
  0
INSERT
  5
16E2
330
CB9
100
AcDbEntity
  8
2寸法線
 62
     0
440
 16777216
370
    -2
100
AcDbBlockReference
  2
2
 10
585.1891814076729
 20
48.59920845739755
 30
0.0
 41
1.8
 42
1.8
 43
1.8
 50
270.0
  0
MTEXT
  5
16E3
330
CB9
100
AcDbEntity
  8
2寸法線
 62
     0
440
 16777216
100
AcDbMText
 10
580.6891814076729
 20
94.0992084573976
 30
0.0
 40
8.0
 41
0.0
 46
0.0
 71
     5
 72
     1
  1
\A1;91
 11
0.0000000000000001
 21
1.0
 31
0.0
 73
     1
 44
1.0
  0
POINT
  5
16E4
330
CB9
100
AcDbEntity
  8
DEFPOINTS
 62
     0
440
 16777216
100
AcDbPoint
 10
659.5672913017907
 20
139.5992084573975
 30
0.0
  0
POINT
  5
16E5
330
CB9
100
AcDbEntity
  8
DEFPOINTS
 62
     0
440
 16777216
100
AcDbPoint
 10
620.7669561800951
 20
48.59920845739754
 30
0.0
  0
POINT
  5
16E6
330
CB9
100
AcDbEntity
  8
DEFPOINTS
 62
     0
440
 16777216
100
AcDbPoint
 10
585.1891814076729
 20
48.59920845739755
 30
0.0
  0
ENDBLK
  5
CBB
330
CB9
100
AcDbEntity
  8
0
100
AcDbBlockEnd
  0
BLOCK
  5
CC7
330
CC6
100
AcDbEntity
  8
0
100
AcDbBlockBegin
  2
*D3
 70
     1
 10
0.0
 20
0.0
 30
0.0
  3
*D3
  1

  0
LINE
  5
163E
330
CC6
100
AcDbEntity
  8
2寸法線
 62
     0
440
 16777216
370
    -2
100
AcDbLine
 10
664.2363797482494
 20
-188.3361669863909
 30
0.0
 11
573.6884100982494
 21
-188.3361669863909
 31
0.0
  0
LINE
  5
163F
330
CC6
100
AcDbEntity
  8
2寸法線
 62
     0
440
 16777216
370
    -2
100
AcDbLine
 10
625.3363797482493
 20
-292.1361669863913
 30
0.0
 11
573.6884100982492
 21
-292.1361669863913
 31
0.0
  0
LINE
  5
1640
330
CC6
100
AcDbEntity
  8
2寸法線
 62
     0
440
 16777216
370
    -2
100
AcDbLine
 10
574.6884100982494
 20
-190.1361669863909
 30
0.0
 11
574.6884100982493
 21
-290.3361669863913
 31
0.0
  0
INSERT
  5
1641
330
CC6
100
AcDbEntity
  8
2寸法線
 62
     0
440
 16777216
370
    -2
100
AcDbBlockReference
  2
2
 10
574.6884100982494
 20
-188.3361669863909
 30
0.0
 41
1.8
 42
1.8
 43
1.8
 50
90.0
  0
INSERT
  5
1642
330
CC6
100
AcDbEntity
  8
2寸法線
 62
     0
440
 16777216
370
    -2
100
AcDbBlockReference
  2
2
 10
574.6884100982493
 20
-292.1361669863913
 30
0.0
 41
1.8
 42
1.8
 43
1.8
 50
270.0
  0
MTEXT
  5
1643
330
CC6
100
AcDbEntity
  8
2寸法線
 62
     0
440
 16777216
100
AcDbMText
 10
570.1884100982494
 20
-240.236166986391
 30
0.0
 40
8.0
 41
0.0
 46
0.0
 71
     5
 72
     1
  1
\A1;103.8
 11
0.0000000000000001
 21
1.0
 31
0.0
 73
     1
 44
1.0
  0
POINT
  5
1644
330
CC6
100
AcDbEntity
  8
DEFPOINTS
 62
     0
440
 16777216
100
AcDbPoint
 10
665.2363797482494
 20
-188.3361669863909
 30
0.0
  0
POINT
  5
1645
330
CC6
100
AcDbEntity
  8
DEFPOINTS
 62
     0
440
 16777216
100
AcDbPoint
 10
626.3363797482493
 20
-292.1361669863913
 30
0.0
  0
POINT
  5
1646
330
CC6
100
AcDbEntity
  8
DEFPOINTS
 62
     0
440
 16777216
100
AcDbPoint
 10
574.6884100982493
 20
-292.1361669863913
 30
0.0
  0
ENDBLK
  5
CC8
330
CC6
100
AcDbEntity
  8
0
100
AcDbBlockEnd
  0
BLOCK
  5
CE9
330
CE8
100
AcDbEntity
  8
0
100
AcDbBlockBegin
  2
*D4
 70
     1
 10
0.0
 20
0.0
 30
0.0
  3
*D4
  1

  0
LINE
  5
1647
330
CE8
100
AcDbEntity
  8
2寸法線
 62
     0
440
 16777216
370
    -2
100
AcDbLine
 10
660.5672913017911
 20
202.5992084573975
 30
0.0
 11
744.82948338092
 21
202.5992084573975
 31
0.0
  0
LINE
  5
1648
330
CE8
100
AcDbEntity
  8
2寸法線
 62
     0
440
 16777216
370
    -2
100
AcDbLine
 10
699.3676264234882
 20
48.59920845739753
 30
0.0
 11
744.82948338092
 21
48.59920845739752
 31
0.0
  0
LINE
  5
1649
330
CE8
100
AcDbEntity
  8
2寸法線
 62
     0
440
 16777216
370
    -2
100
AcDbLine
 10
743.82948338092
 20
200.7992084573975
 30
0.0
 11
743.82948338092
 21
50.39920845739752
 31
0.0
  0
INSERT
  5
164A
330
CE8
100
AcDbEntity
  8
2寸法線
 62
     0
440
 16777216
370
    -2
100
AcDbBlockReference
  2
2
 10
743.82948338092
 20
202.5992084573975
 30
0.0
 41
1.8
 42
1.8
 43
1.8
 50
90.0
  0
INSERT
  5
164B
330
CE8
100
AcDbEntity
  8
2寸法線
 62
     0
440
 16777216
370
    -2
100
AcDbBlockReference
  2
2
 10
743.82948338092
 20
48.59920845739752
 30
0.0
 41
1.8
 42
1.8
 43
1.8
 50
270.0
  0
MTEXT
  5
164C
330
CE8
100
AcDbEntity
  8
2寸法線
 62
     0
440
 16777216
100
AcDbMText
 10
739.32948338092
 20
125.5992084573976
 30
0.0
 40
8.0
 41
0.0
 46
0.0
 71
     5
 72
     1
  1
\A1;154
 11
0.0000000000000001
 21
1.0
 31
0.0
 73
     1
 44
1.0
  0
POINT
  5
164D
330
CE8
100
AcDbEntity
  8
DEFPOINTS
 62
     0
440
 16777216
100
AcDbPoint
 10
659.5672913017911
 20
202.5992084573975
 30
0.0
  0
POINT
  5
164E
330
CE8
100
AcDbEntity
  8
DEFPOINTS
 62
     0
440
 16777216
100
AcDbPoint
 10
698.3676264234881
 20
48.59920845739753
 30
0.0
  0
POINT
  5
164F
330
CE8
100
AcDbEntity
  8
DEFPOINTS
 62
     0
440
 16777216
100
AcDbPoint
 10
743.82948338092
 20
48.59920845739752
 30
0.0
  0
ENDBLK
  5
CEA
330
CE8
100
AcDbEntity
  8
0
100
AcDbBlockEnd
  0
BLOCK
  5
CF6
330
CF5
100
AcDbEntity
  8
0
100
AcDbBlockBegin
  2
*D5
 70
     1
 10
0.0
 20
0.0
 30
0.0
  3
*D5
  1

  0
LINE
  5
1650
330
CF5
100
AcDbEntity
  8
2寸法線
 62
     0
440
 16777216
370
    -2
100
AcDbLine
 10
666.2363797482498
 20
-115.1361669863919
 30
0.0
 11
765.4557869629794
 21
-115.1361669863919
 31
0.0
  0
LINE
  5
1651
330
CF5
100
AcDbEntity
  8
2寸法線
 62
     0
440
 16777216
370
    -2
100
AcDbLine
 10
705.1363797482496
 20
-292.1361669863913
 30
0.0
 11
765.4557869629793
 21
-292.1361669863913
 31
0.0
  0
LINE
  5
1652
330
CF5
100
AcDbEntity
  8
2寸法線
 62
     0
440
 16777216
370
    -2
100
AcDbLine
 10
764.4557869629794
 20
-116.9361669863919
 30
0.0
 11
764.4557869629793
 21
-290.3361669863913
 31
0.0
  0
INSERT
  5
1653
330
CF5
100
AcDbEntity
  8
2寸法線
 62
     0
440
 16777216
370
    -2
100
AcDbBlockReference
  2
2
 10
764.4557869629794
 20
-115.1361669863919
 30
0.0
 41
1.8
 42
1.8
 43
1.8
 50
90.0
  0
INSERT
  5
1654
330
CF5
100
AcDbEntity
  8
2寸法線
 62
     0
440
 16777216
370
    -2
100
AcDbBlockReference
  2
2
 10
764.4557869629793
 20
-292.1361669863913
 30
0.0
 41
1.8
 42
1.8
 43
1.8
 50
270.0
  0
MTEXT
  5
1655
330
CF5
100
AcDbEntity
  8
2寸法線
 62
     0
440
 16777216
100
AcDbMText
 10
759.9557869629794
 20
-203.6361669863915
 30
0.0
 40
8.0
 41
0.0
 46
0.0
 71
     5
 72
     1
  1
\A1;177
 11
0.0000000000000001
 21
1.0
 31
0.0
 73
     1
 44
1.0
  0
POINT
  5
1656
330
CF5
100
AcDbEntity
  8
DEFPOINTS
 62
     0
440
 16777216
100
AcDbPoint
 10
665.2363797482498
 20
-115.1361669863919
 30
0.0
  0
POINT
  5
1657
330
CF5
100
AcDbEntity
  8
DEFPOINTS
 62
     0
440
 16777216
100
AcDbPoint
 10
704.1363797482496
 20
-292.1361669863913
 30
0.0
  0
POINT
  5
1658
330
CF5
100
AcDbEntity
  8
DEFPOINTS
 62
     0
440
 16777216
100
AcDbPoint
 10
764.4557869629793
 20
-292.1361669863913
 30
0.0
  0
ENDBLK
  5
CF7
330
CF5
100
AcDbEntity
  8
0
100
AcDbBlockEnd
  0
BLOCK
  5
D03
330
D02
100
AcDbEntity
  8
0
100
AcDbBlockBegin
  2
*D6
 70
     1
 10
0.0
 20
0.0
 30
0.0
  3
*D6
  1

  0
LINE
  5
1659
330
D02
100
AcDbEntity
  8
2寸法線
 62
     0
440
 16777216
370
    -2
100
AcDbLine
 10
666.0197760962034
 20
-475.0873443606766
 30
0.0
 11
758.0019011235313
 21
-475.0873443606766
 31
0.0
  0
LINE
  5
165A
330
D02
100
AcDbEntity
  8
2寸法線
 62
     0
440
 16777216
370
    -2
100
AcDbLine
 10
666.0197760962034
 20
-652.0873443606767
 30
0.0
 11
758.0019011235313
 21
-652.0873443606767
 31
0.0
  0
LINE
  5
165B
330
D02
100
AcDbEntity
  8
2寸法線
 62
     0
440
 16777216
370
    -2
100
AcDbLine
 10
757.0019011235313
 20
-476.8873443606767
 30
0.0
 11
757.0019011235313
 21
-650.2873443606768
 31
0.0
  0
INSERT
  5
165C
330
D02
100
AcDbEntity
  8
2寸法線
 62
     0
440
 16777216
370
    -2
100
AcDbBlockReference
  2
2
 10
757.0019011235313
 20
-475.0873443606766
 30
0.0
 41
1.8
 42
1.8
 43
1.8
 50
90.0
  0
INSERT
  5
165D
330
D02
100
AcDbEntity
  8
2寸法線
 62
     0
440
 16777216
370
    -2
100
AcDbBlockReference
  2
2
 10
757.0019011235313
 20
-652.0873443606767
 30
0.0
 41
1.8
 42
1.8
 43
1.8
 50
270.0
  0
MTEXT
  5
165E
330
D02
100
AcDbEntity
  8
2寸法線
 62
     0
440
 16777216
100
AcDbMText
 10
752.5019011235314
 20
-563.5873443606766
 30
0.0
 40
8.0
 41
0.0
 46
0.0
 71
     5
 72
     1
  1
\A1;177
 11
0.0000000000000001
 21
1.0
 31
0.0
 73
     1
 44
1.0
  0
POINT
  5
165F
330
D02
100
AcDbEntity
  8
DEFPOINTS
 62
     0
440
 16777216
100
AcDbPoint
 10
665.0197760962035
 20
-475.0873443606766
 30
0.0
  0
POINT
  5
1660
330
D02
100
AcDbEntity
  8
DEFPOINTS
 62
     0
440
 16777216
100
AcDbPoint
 10
665.0197760962035
 20
-652.0873443606767
 30
0.0
  0
POINT
  5
1661
330
D02
100
AcDbEntity
  8
DEFPOINTS
 62
     0
440
 16777216
100
AcDbPoint
 10
757.0019011235313
 20
-652.0873443606767
 30
0.0
  0
ENDBLK
  5
D04
330
D02
100
AcDbEntity
  8
0
100
AcDbBlockEnd
  0
BLOCK
  5
11D4
330
11D3
100
AcDbEntity
  8
0
100
AcDbBlockBegin
  2
*D7
 70
     1
 10
0.0
 20
0.0
 30
0.0
  3
*D7
  1

  0
LINE
  5
1521
330
11D3
100
AcDbEntity
  8
2寸法線
 62
     0
440
 16777216
370
    -2
100
AcDbLine
 10
1043.862019667731
 20
139.5992082188269
 30
0.0
 11
969.483909773613
 21
139.5992082188269
 31
0.0
  0
LINE
  5
1522
330
11D3
100
AcDbEntity
  8
2寸法線
 62
     0
440
 16777216
370
    -2
100
AcDbLine
 10
1043.862019667731
 20
52.5992082188269
 30
0.0
 11
969.483909773613
 21
52.59920821882693
 31
0.0
  0
LINE
  5
1523
330
11D3
100
AcDbEntity
  8
2寸法線
 62
     0
440
 16777216
370
    -2
100
AcDbLine
 10
970.483909773613
 20
137.7992082188269
 30
0.0
 11
970.483909773613
 21
54.39920821882693
 31
0.0
  0
INSERT
  5
1524
330
11D3
100
AcDbEntity
  8
2寸法線
 62
     0
440
 16777216
370
    -2
100
AcDbBlockReference
  2
2
 10
970.483909773613
 20
139.5992082188269
 30
0.0
 41
1.8
 42
1.8
 43
1.8
 50
90.0
  0
INSERT
  5
1525
330
11D3
100
AcDbEntity
  8
2寸法線
 62
     0
440
 16777216
370
    -2
100
AcDbBlockReference
  2
2
 10
970.483909773613
 20
52.59920821882693
 30
0.0
 41
1.8
 42
1.8
 43
1.8
 50
270.0
  0
MTEXT
  5
1526
330
11D3
100
AcDbEntity
  8
2寸法線
 62
     0
440
 16777216
100
AcDbMText
 10
965.983909773613
 20
96.09920821882708
 30
0.0
 40
8.0
 41
0.0
 46
0.0
 71
     5
 72
     1
  1
\A1;87
 11
0.0000000000000001
 21
1.0
 31
0.0
 73
     1
 44
1.0
  0
POINT
  5
1527
330
11D3
100
AcDbEntity
  8
DEFPOINTS
 62
     0
440
 16777216
100
AcDbPoint
 10
1044.86201966773
 20
139.5992082188269
 30
0.0
  0
POINT
  5
1528
330
11D3
100
AcDbEntity
  8
DEFPOINTS
 62
     0
440
 16777216
100
AcDbPoint
 10
1044.862019667731
 20
52.5992082188269
 30
0.0
  0
POINT
  5
1529
330
11D3
100
AcDbEntity
  8
DEFPOINTS
 62
     0
440
 16777216
100
AcDbPoint
 10
970.483909773613
 20
52.59920821882693
 30
0.0
  0
ENDBLK
  5
11D5
330
11D3
100
AcDbEntity
  8
0
100
AcDbBlockEnd
  0
BLOCK
  5
11E0
330
11DF
100
AcDbEntity
  8
0
100
AcDbBlockBegin
  2
*D8
 70
     1
 10
0.0
 20
0.0
 30
0.0
  3
*D8
  1

  0
LINE
  5
1533
330
11DF
100
AcDbEntity
  8
2寸法線
 62
     0
440
 16777216
370
    -2
100
AcDbLine
 10
1049.531108114189
 20
-188.3361672249615
 30
0.0
 11
958.9831384641895
 21
-188.3361672249615
 31
0.0
  0
LINE
  5
1534
330
11DF
100
AcDbEntity
  8
2寸法線
 62
     0
440
 16777216
370
    -2
100
AcDbLine
 10
1049.531108114189
 20
-286.1361672249619
 30
0.0
 11
958.9831384641893
 21
-286.1361672249619
 31
0.0
  0
LINE
  5
1535
330
11DF
100
AcDbEntity
  8
2寸法線
 62
     0
440
 16777216
370
    -2
100
AcDbLine
 10
959.9831384641895
 20
-190.1361672249615
 30
0.0
 11
959.9831384641893
 21
-284.3361672249618
 31
0.0
  0
INSERT
  5
1536
330
11DF
100
AcDbEntity
  8
2寸法線
 62
     0
440
 16777216
370
    -2
100
AcDbBlockReference
  2
2
 10
959.9831384641895
 20
-188.3361672249615
 30
0.0
 41
1.8
 42
1.8
 43
1.8
 50
90.0
  0
INSERT
  5
1537
330
11DF
100
AcDbEntity
  8
2寸法線
 62
     0
440
 16777216
370
    -2
100
AcDbBlockReference
  2
2
 10
959.9831384641893
 20
-286.1361672249619
 30
0.0
 41
1.8
 42
1.8
 43
1.8
 50
270.0
  0
MTEXT
  5
1538
330
11DF
100
AcDbEntity
  8
2寸法線
 62
     0
440
 16777216
100
AcDbMText
 10
955.4831384641895
 20
-237.2361672249615
 30
0.0
 40
8.0
 41
0.0
 46
0.0
 71
     5
 72
     1
  1
\A1;97.8
 11
0.0000000000000001
 21
1.0
 31
0.0
 73
     1
 44
1.0
  0
POINT
  5
1539
330
11DF
100
AcDbEntity
  8
DEFPOINTS
 62
     0
440
 16777216
100
AcDbPoint
 10
1050.531108114189
 20
-188.3361672249615
 30
0.0
  0
POINT
  5
153A
330
11DF
100
AcDbEntity
  8
DEFPOINTS
 62
     0
440
 16777216
100
AcDbPoint
 10
1050.531108114189
 20
-286.1361672249619
 30
0.0
  0
POINT
  5
153B
330
11DF
100
AcDbEntity
  8
DEFPOINTS
 62
     0
440
 16777216
100
AcDbPoint
 10
959.9831384641893
 20
-286.1361672249619
 30
0.0
  0
ENDBLK
  5
11E1
330
11DF
100
AcDbEntity
  8
0
100
AcDbBlockEnd
  0
BLOCK
  5
11FE
330
11FD
100
AcDbEntity
  8
0
100
AcDbBlockBegin
  2
*D9
 70
     1
 10
0.0
 20
0.0
 30
0.0
  3
*D9
  1

  0
LINE
  5
1518
330
11FD
100
AcDbEntity
  8
2寸法線
 62
     0
440
 16777216
370
    -2
100
AcDbLine
 10
1045.862019667731
 20
202.5992082188269
 30
0.0
 11
1130.12421174686
 21
202.5992082188269
 31
0.0
  0
LINE
  5
1519
330
11FD
100
AcDbEntity
  8
2寸法線
 62
     0
440
 16777216
370
    -2
100
AcDbLine
 10
1044.862019667731
 20
52.5992082188269
 30
0.0
 11
1130.12421174686
 21
52.59920821882688
 31
0.0
  0
LINE
  5
151A
330
11FD
100
AcDbEntity
  8
2寸法線
 62
     0
440
 16777216
370
    -2
100
AcDbLine
 10
1129.12421174686
 20
200.7992082188269
 30
0.0
 11
1129.12421174686
 21
54.39920821882687
 31
0.0
  0
INSERT
  5
151B
330
11FD
100
AcDbEntity
  8
2寸法線
 62
     0
440
 16777216
370
    -2
100
AcDbBlockReference
  2
2
 10
1129.12421174686
 20
202.5992082188269
 30
0.0
 41
1.8
 42
1.8
 43
1.8
 50
90.0
  0
INSERT
  5
151C
330
11FD
100
AcDbEntity
  8
2寸法線
 62
     0
440
 16777216
370
    -2
100
AcDbBlockReference
  2
2
 10
1129.12421174686
 20
52.59920821882688
 30
0.0
 41
1.8
 42
1.8
 43
1.8
 50
270.0
  0
MTEXT
  5
151D
330
11FD
100
AcDbEntity
  8
2寸法線
 62
     0
440
 16777216
100
AcDbMText
 10
1124.62421174686
 20
127.599208218827
 30
0.0
 40
8.0
 41
0.0
 46
0.0
 71
     5
 72
     1
  1
\A1;150
 11
0.0000000000000001
 21
1.0
 31
0.0
 73
     1
 44
1.0
  0
POINT
  5
151E
330
11FD
100
AcDbEntity
  8
DEFPOINTS
 62
     0
440
 16777216
100
AcDbPoint
 10
1044.862019667731
 20
202.5992082188269
 30
0.0
  0
POINT
  5
151F
330
11FD
100
AcDbEntity
  8
DEFPOINTS
 62
     0
440
 16777216
100
AcDbPoint
 10
1043.862019667731
 20
52.5992082188269
 30
0.0
  0
POINT
  5
1520
330
11FD
100
AcDbEntity
  8
DEFPOINTS
 62
     0
440
 16777216
100
AcDbPoint
 10
1129.12421174686
 20
52.59920821882688
 30
0.0
  0
ENDBLK
  5
11FF
330
11FD
100
AcDbEntity
  8
0
100
AcDbBlockEnd
  0
BLOCK
  5
120A
330
1209
100
AcDbEntity
  8
0
100
AcDbBlockBegin
  2
*D10
 70
     1
 10
0.0
 20
0.0
 30
0.0
  3
*D10
  1

  0
LINE
  5
152A
330
1209
100
AcDbEntity
  8
2寸法線
 62
     0
440
 16777216
370
    -2
100
AcDbLine
 10
1051.53110811419
 20
-115.1361672249625
 30
0.0
 11
1150.750515328919
 21
-115.1361672249625
 31
0.0
  0
LINE
  5
152B
330
1209
100
AcDbEntity
  8
2寸法線
 62
     0
440
 16777216
370
    -2
100
AcDbLine
 10
1051.531108114189
 20
-286.1361672249619
 30
0.0
 11
1150.750515328919
 21
-286.1361672249619
 31
0.0
  0
LINE
  5
152C
330
1209
100
AcDbEntity
  8
2寸法線
 62
     0
440
 16777216
370
    -2
100
AcDbLine
 10
1149.750515328919
 20
-116.9361672249625
 30
0.0
 11
1149.750515328919
 21
-284.3361672249618
 31
0.0
  0
INSERT
  5
152D
330
1209
100
AcDbEntity
  8
2寸法線
 62
     0
440
 16777216
370
    -2
100
AcDbBlockReference
  2
2
 10
1149.750515328919
 20
-115.1361672249625
 30
0.0
 41
1.8
 42
1.8
 43
1.8
 50
90.0
  0
INSERT
  5
152E
330
1209
100
AcDbEntity
  8
2寸法線
 62
     0
440
 16777216
370
    -2
100
AcDbBlockReference
  2
2
 10
1149.750515328919
 20
-286.1361672249619
 30
0.0
 41
1.8
 42
1.8
 43
1.8
 50
270.0
  0
MTEXT
  5
152F
330
1209
100
AcDbEntity
  8
2寸法線
 62
     0
440
 16777216
100
AcDbMText
 10
1145.250515328919
 20
-200.636167224962
 30
0.0
 40
8.0
 41
0.0
 46
0.0
 71
     5
 72
     1
  1
\A1;171
 11
0.0000000000000001
 21
1.0
 31
0.0
 73
     1
 44
1.0
  0
POINT
  5
1530
330
1209
100
AcDbEntity
  8
DEFPOINTS
 62
     0
440
 16777216
100
AcDbPoint
 10
1050.53110811419
 20
-115.1361672249625
 30
0.0
  0
POINT
  5
1531
330
1209
100
AcDbEntity
  8
DEFPOINTS
 62
     0
440
 16777216
100
AcDbPoint
 10
1050.531108114189
 20
-286.1361672249619
 30
0.0
  0
POINT
  5
1532
330
1209
100
AcDbEntity
  8
DEFPOINTS
 62
     0
440
 16777216
100
AcDbPoint
 10
1149.750515328919
 20
-286.1361672249619
 30
0.0
  0
ENDBLK
  5
120B
330
1209
100
AcDbEntity
  8
0
100
AcDbBlockEnd
  0
BLOCK
  5
1216
330
1215
100
AcDbEntity
  8
0
100
AcDbBlockBegin
  2
*D11
 70
     1
 10
0.0
 20
0.0
 30
0.0
  3
*D11
  1

  0
LINE
  5
153C
330
1215
100
AcDbEntity
  8
2寸法線
 62
     0
440
 16777216
370
    -2
100
AcDbLine
 10
1051.314504462143
 20
-475.0873445992472
 30
0.0
 11
1143.296629489471
 21
-475.0873445992472
 31
0.0
  0
LINE
  5
153D
330
1215
100
AcDbEntity
  8
2寸法線
 62
     0
440
 16777216
370
    -2
100
AcDbLine
 10
1051.314504462143
 20
-646.0873445992473
 30
0.0
 11
1143.296629489471
 21
-646.0873445992473
 31
0.0
  0
LINE
  5
153E
330
1215
100
AcDbEntity
  8
2寸法線
 62
     0
440
 16777216
370
    -2
100
AcDbLine
 10
1142.296629489471
 20
-476.8873445992473
 30
0.0
 11
1142.296629489471
 21
-644.2873445992473
 31
0.0
  0
INSERT
  5
153F
330
1215
100
AcDbEntity
  8
2寸法線
 62
     0
440
 16777216
370
    -2
100
AcDbBlockReference
  2
2
 10
1142.296629489471
 20
-475.0873445992472
 30
0.0
 41
1.8
 42
1.8
 43
1.8
 50
90.0
  0
INSERT
  5
1540
330
1215
100
AcDbEntity
  8
2寸法線
 62
     0
440
 16777216
370
    -2
100
AcDbBlockReference
  2
2
 10
1142.296629489471
 20
-646.0873445992473
 30
0.0
 41
1.8
 42
1.8
 43
1.8
 50
270.0
  0
MTEXT
  5
1541
330
1215
100
AcDbEntity
  8
2寸法線
 62
     0
440
 16777216
100
AcDbMText
 10
1137.796629489471
 20
-560.5873445992472
 30
0.0
 40
8.0
 41
0.0
 46
0.0
 71
     5
 72
     1
  1
\A1;171
 11
0.0000000000000001
 21
1.0
 31
0.0
 73
     1
 44
1.0
  0
POINT
  5
1542
330
1215
100
AcDbEntity
  8
DEFPOINTS
 62
     0
440
 16777216
100
AcDbPoint
 10
1050.314504462143
 20
-475.0873445992472
 30
0.0
  0
POINT
  5
1543
330
1215
100
AcDbEntity
  8
DEFPOINTS
 62
     0
440
 16777216
100
AcDbPoint
 10
1050.314504462143
 20
-646.0873445992473
 30
0.0
  0
POINT
  5
1544
330
1215
100
AcDbEntity
  8
DEFPOINTS
 62
     0
440
 16777216
100
AcDbPoint
 10
1142.296629489471
 20
-646.0873445992473
 30
0.0
  0
ENDBLK
  5
1217
330
1215
100
AcDbEntity
  8
0
100
AcDbBlockEnd
  0
BLOCK
  5
12E3
330
12E2
100
AcDbEntity
  8
0
100
AcDbBlockBegin
  2
*D12
 70
     1
 10
0.0
 20
0.0
 30
0.0
  3
*D12
  1

  0
LINE
  5
1662
330
12E2
100
AcDbEntity
  8
2寸法線
 62
     0
440
 16777216
370
    -2
100
AcDbLine
 10
706.1363797482497
 20
-188.3361669863909
 30
0.0
 11
719.9511827385708
 21
-188.3361669863909
 31
0.0
  0
LINE
  5
1663
330
12E2
100
AcDbEntity
  8
2寸法線
 62
     0
440
 16777216
370
    -2
100
AcDbLine
 10
706.1363797482497
 20
-194.3361669863909
 30
0.0
 11
719.9511827385708
 21
-194.3361669863909
 31
0.0
  0
LINE
  5
1664
330
12E2
100
AcDbEntity
  8
2寸法線
 62
     0
440
 16777216
370
    -2
100
AcDbLine
 10
718.9511827385708
 20
-192.5361669863909
 30
0.0
 11
718.9511827385708
 21
-190.1361669863909
 31
0.0
  0
LINE
  5
1665
330
12E2
100
AcDbEntity
  8
2寸法線
 62
     0
440
 16777216
370
    -2
100
AcDbLine
 10
718.9511827385708
 20
-188.3361669863909
 30
0.0
 11
718.9511827385708
 21
-175.5063135451555
 31
0.0
  0
INSERT
  5
1666
330
12E2
100
AcDbEntity
  8
2寸法線
 62
     0
440
 16777216
370
    -2
100
AcDbBlockReference
  2
2
 10
718.9511827385708
 20
-194.3361669863909
 30
0.0
 41
1.8
 42
1.8
 43
1.8
 50
270.0
  0
INSERT
  5
1667
330
12E2
100
AcDbEntity
  8
2寸法線
 62
     0
440
 16777216
370
    -2
100
AcDbBlockReference
  2
2
 10
718.9511827385708
 20
-188.3361669863909
 30
0.0
 41
1.8
 42
1.8
 43
1.8
 50
90.0
  0
MTEXT
  5
1668
330
12E2
100
AcDbEntity
  8
2寸法線
 62
     0
440
 16777216
100
AcDbMText
 10
714.4511827385708
 20
-178.672980211822
 30
0.0
 40
8.0
 41
0.0
 46
0.0
 71
     5
 72
     1
  1
\A1;6
 11
0.0000000000000001
 21
1.0
 31
0.0
 73
     1
 44
1.0
  0
POINT
  5
1669
330
12E2
100
AcDbEntity
  8
DEFPOINTS
 62
     0
440
 16777216
100
AcDbPoint
 10
705.1363797482497
 20
-188.3361669863909
 30
0.0
  0
POINT
  5
166A
330
12E2
100
AcDbEntity
  8
DEFPOINTS
 62
     0
440
 16777216
100
AcDbPoint
 10
705.1363797482497
 20
-194.3361669863909
 30
0.0
  0
POINT
  5
166B
330
12E2
100
AcDbEntity
  8
DEFPOINTS
 62
     0
440
 16777216
100
AcDbPoint
 10
718.9511827385708
 20
-194.3361669863909
 30
0.0
  0
ENDBLK
  5
12E4
330
12E2
100
AcDbEntity
  8
0
100
AcDbBlockEnd
  0
BLOCK
  5
132E
330
132D
100
AcDbEntity
  8
0
100
AcDbBlockBegin
  2
*D13
 70
     1
 10
0.0
 20
0.0
 30
0.0
  3
*D13
  1

  0
LINE
  5
166C
330
132D
100
AcDbEntity
  8
2寸法線
 62
     0
440
 16777216
370
    -2
100
AcDbLine
 10
700.3676264234862
 20
139.5992084573975
 30
0.0
 11
713.0313745191783
 21
139.5992084573975
 31
0.0
  0
LINE
  5
166D
330
132D
100
AcDbEntity
  8
2寸法線
 62
     0
440
 16777216
370
    -2
100
AcDbLine
 10
700.3676264234862
 20
135.5992084573975
 30
0.0
 11
713.0313745191783
 21
135.5992084573975
 31
0.0
  0
LINE
  5
166E
330
132D
100
AcDbEntity
  8
2寸法線
 62
     0
440
 16777216
370
    -2
100
AcDbLine
 10
712.0313745191784
 20
133.7992084573975
 30
0.0
 11
712.0313745191784
 21
131.9992084573975
 31
0.0
  0
LINE
  5
166F
330
132D
100
AcDbEntity
  8
2寸法線
 62
     0
440
 16777216
370
    -2
100
AcDbLine
 10
712.0313745191784
 20
141.3992084573975
 30
0.0
 11
712.0313745191784
 21
150.4514324273878
 31
0.0
  0
LINE
  5
1670
330
132D
100
AcDbEntity
  8
2寸法線
 62
     0
440
 16777216
370
    -2
100
AcDbLine
 10
712.0313745191784
 20
135.5992084573975
 30
0.0
 11
712.0313745191784
 21
139.5992084573975
 31
0.0
  0
INSERT
  5
1671
330
132D
100
AcDbEntity
  8
2寸法線
 62
     0
440
 16777216
370
    -2
100
AcDbBlockReference
  2
2
 10
712.0313745191784
 20
135.5992084573975
 30
0.0
 41
1.8
 42
1.8
 43
1.8
 50
90.0
  0
INSERT
  5
1672
330
132D
100
AcDbEntity
  8
2寸法線
 62
     0
440
 16777216
370
    -2
100
AcDbBlockReference
  2
2
 10
712.0313745191784
 20
139.5992084573975
 30
0.0
 41
1.8
 42
1.8
 43
1.8
 50
270.0
  0
MTEXT
  5
1673
330
132D
100
AcDbEntity
  8
2寸法線
 62
     0
440
 16777216
100
AcDbMText
 10
707.5313745191784
 20
147.2847657607212
 30
0.0
 40
8.0
 41
0.0
 46
0.0
 71
     5
 72
     1
  1
\A1;4
 11
0.0000000000000001
 21
1.0
 31
0.0
 73
     1
 44
1.0
  0
POINT
  5
1674
330
132D
100
AcDbEntity
  8
DEFPOINTS
 62
     0
440
 16777216
100
AcDbPoint
 10
699.3676264234863
 20
139.5992084573975
 30
0.0
  0
POINT
  5
1675
330
132D
100
AcDbEntity
  8
DEFPOINTS
 62
     0
440
 16777216
100
AcDbPoint
 10
699.3676264234863
 20
135.5992084573975
 30
0.0
  0
POINT
  5
1676
330
132D
100
AcDbEntity
  8
DEFPOINTS
 62
     0
440
 16777216
100
AcDbPoint
 10
712.0313745191784
 20
135.5992084573975
 30
0.0
  0
ENDBLK
  5
132F
330
132D
100
AcDbEntity
  8
0
100
AcDbBlockEnd
  0
BLOCK
  5
1363
330
1362
100
AcDbEntity
  8
0
100
AcDbBlockBegin
  2
*D14
 70
     1
 10
0.0
 20
0.0
 30
0.0
  3
*D14
  1

  0
LINE
  5
1677
330
1362
100
AcDbEntity
  8
2寸法線
 62
     0
440
 16777216
370
    -2
100
AcDbLine
 10
739.4363797482488
 20
-188.3361669863909
 30
0.0
 11
748.5619577835464
 21
-188.3361669863909
 31
0.0
  0
LINE
  5
1678
330
1362
100
AcDbEntity
  8
2寸法線
 62
     0
440
 16777216
370
    -2
100
AcDbLine
 10
739.4363797482488
 20
-194.3361669863909
 30
0.0
 11
748.5619577835464
 21
-194.3361669863909
 31
0.0
  0
LINE
  5
1679
330
1362
100
AcDbEntity
  8
2寸法線
 62
     0
440
 16777216
370
    -2
100
AcDbLine
 10
747.5619577835463
 20
-192.5361669863909
 30
0.0
 11
747.5619577835463
 21
-190.1361669863909
 31
0.0
  0
LINE
  5
167A
330
1362
100
AcDbEntity
  8
2寸法線
 62
     0
440
 16777216
370
    -2
100
AcDbLine
 10
747.5619577835463
 20
-188.3361669863909
 30
0.0
 11
747.5619577835463
 21
-175.9812530847188
 31
0.0
  0
INSERT
  5
167B
330
1362
100
AcDbEntity
  8
2寸法線
 62
     0
440
 16777216
370
    -2
100
AcDbBlockReference
  2
2
 10
747.5619577835463
 20
-194.3361669863909
 30
0.0
 41
1.8
 42
1.8
 43
1.8
 50
270.0
  0
INSERT
  5
167C
330
1362
100
AcDbEntity
  8
2寸法線
 62
     0
440
 16777216
370
    -2
100
AcDbBlockReference
  2
2
 10
747.5619577835463
 20
-188.3361669863909
 30
0.0
 41
1.8
 42
1.8
 43
1.8
 50
90.0
  0
MTEXT
  5
167D
330
1362
100
AcDbEntity
  8
2寸法線
 62
     0
440
 16777216
100
AcDbMText
 10
743.0619577835464
 20
-179.1479197513854
 30
0.0
 40
8.0
 41
0.0
 46
0.0
 71
     5
 72
     1
  1
\A1;6
 11
0.0000000000000001
 21
1.0
 31
0.0
 73
     1
 44
1.0
  0
POINT
  5
167E
330
1362
100
AcDbEntity
  8
DEFPOINTS
 62
     0
440
 16777216
100
AcDbPoint
 10
738.4363797482487
 20
-188.3361669863909
 30
0.0
  0
POINT
  5
167F
330
1362
100
AcDbEntity
  8
DEFPOINTS
 62
     0
440
 16777216
100
AcDbPoint
 10
738.4363797482487
 20
-194.3361669863909
 30
0.0
  0
POINT
  5
1680
330
1362
100
AcDbEntity
  8
DEFPOINTS
 62
     0
440
 16777216
100
AcDbPoint
 10
747.5619577835463
 20
-194.3361669863909
 30
0.0
  0
ENDBLK
  5
1364
330
1362
100
AcDbEntity
  8
0
100
AcDbBlockEnd
  0
BLOCK
  5
137F
330
137E
100
AcDbEntity
  8
0
100
AcDbBlockBegin
  2
*D15
 70
     1
 10
0.0
 20
0.0
 30
0.0
  3
*D15
  1

  0
LINE
  5
1681
330
137E
100
AcDbEntity
  8
2寸法線
 62
     0
440
 16777216
370
    -2
100
AcDbLine
 10
739.2197760962035
 20
-548.2873443606766
 30
0.0
 11
747.5253054955569
 21
-548.2873443606766
 31
0.0
  0
LINE
  5
1682
330
137E
100
AcDbEntity
  8
2寸法線
 62
     0
440
 16777216
370
    -2
100
AcDbLine
 10
739.2197760962035
 20
-554.2873443606765
 30
0.0
 11
747.5253054955569
 21
-554.2873443606765
 31
0.0
  0
LINE
  5
1683
330
137E
100
AcDbEntity
  8
2寸法線
 62
     0
440
 16777216
370
    -2
100
AcDbLine
 10
746.5253054955569
 20
-552.4873443606765
 30
0.0
 11
746.5253054955569
 21
-550.0873443606765
 31
0.0
  0
LINE
  5
1684
330
137E
100
AcDbEntity
  8
2寸法線
 62
     0
440
 16777216
370
    -2
100
AcDbLine
 10
746.5253054955569
 20
-548.2873443606766
 30
0.0
 11
746.5253054955569
 21
-527.4351591647504
 31
0.0
  0
INSERT
  5
1685
330
137E
100
AcDbEntity
  8
2寸法線
 62
     0
440
 16777216
370
    -2
100
AcDbBlockReference
  2
2
 10
746.5253054955569
 20
-554.2873443606765
 30
0.0
 41
1.8
 42
1.8
 43
1.8
 50
270.0
  0
INSERT
  5
1686
330
137E
100
AcDbEntity
  8
2寸法線
 62
     0
440
 16777216
370
    -2
100
AcDbBlockReference
  2
2
 10
746.5253054955569
 20
-548.2873443606766
 30
0.0
 41
1.8
 42
1.8
 43
1.8
 50
90.0
  0
MTEXT
  5
1687
330
137E
100
AcDbEntity
  8
2寸法線
 62
     0
440
 16777216
100
AcDbMText
 10
742.025305495557
 20
-530.601825831417
 30
0.0
 40
8.0
 41
0.0
 46
0.0
 71
     5
 72
     1
  1
\A1;6
 11
0.0000000000000001
 21
1.0
 31
0.0
 73
     1
 44
1.0
  0
POINT
  5
1688
330
137E
100
AcDbEntity
  8
DEFPOINTS
 62
     0
440
 16777216
100
AcDbPoint
 10
738.2197760962035
 20
-548.2873443606766
 30
0.0
  0
POINT
  5
1689
330
137E
100
AcDbEntity
  8
DEFPOINTS
 62
     0
440
 16777216
100
AcDbPoint
 10
738.2197760962035
 20
-554.2873443606765
 30
0.0
  0
POINT
  5
168A
330
137E
100
AcDbEntity
  8
DEFPOINTS
 62
     0
440
 16777216
100
AcDbPoint
 10
746.5253054955569
 20
-554.2873443606765
 30
0.0
  0
ENDBLK
  5
1380
330
137E
100
AcDbEntity
  8
0
100
AcDbBlockEnd
  0
BLOCK
  5
13E7
330
13E6
100
AcDbEntity
  8
0
100
AcDbBlockBegin
  2
*D16
 70
     1
 10
0.0
 20
0.0
 30
0.0
  3
*D16
  1

  0
LINE
  5
168B
330
13E6
100
AcDbEntity
  8
2寸法線
 62
     0
440
 16777216
370
    -2
100
AcDbLine
 10
710.7197760961951
 20
-548.2873443606766
 30
0.0
 11
724.8465703779952
 21
-548.2873443606766
 31
0.0
  0
LINE
  5
168C
330
13E6
100
AcDbEntity
  8
2寸法線
 62
     0
440
 16777216
370
    -2
100
AcDbLine
 10
710.7197760961951
 20
-554.2873443606766
 30
0.0
 11
724.8465703779952
 21
-554.2873443606766
 31
0.0
  0
LINE
  5
168D
330
13E6
100
AcDbEntity
  8
2寸法線
 62
     0
440
 16777216
370
    -2
100
AcDbLine
 10
723.8465703779952
 20
-552.4873443606767
 30
0.0
 11
723.8465703779952
 21
-550.0873443606766
 31
0.0
  0
LINE
  5
168E
330
13E6
100
AcDbEntity
  8
2寸法線
 62
     0
440
 16777216
370
    -2
100
AcDbLine
 10
723.8465703779952
 20
-548.2873443606766
 30
0.0
 11
723.8465703779952
 21
-530.8395620430086
 31
0.0
  0
INSERT
  5
168F
330
13E6
100
AcDbEntity
  8
2寸法線
 62
     0
440
 16777216
370
    -2
100
AcDbBlockReference
  2
2
 10
723.8465703779952
 20
-554.2873443606766
 30
0.0
 41
1.8
 42
1.8
 43
1.8
 50
270.0
  0
INSERT
  5
1690
330
13E6
100
AcDbEntity
  8
2寸法線
 62
     0
440
 16777216
370
    -2
100
AcDbBlockReference
  2
2
 10
723.8465703779952
 20
-548.2873443606766
 30
0.0
 41
1.8
 42
1.8
 43
1.8
 50
90.0
  0
MTEXT
  5
1691
330
13E6
100
AcDbEntity
  8
2寸法線
 62
     0
440
 16777216
100
AcDbMText
 10
719.3465703779954
 20
-534.0062287096753
 30
0.0
 40
8.0
 41
0.0
 46
0.0
 71
     5
 72
     1
  1
\A1;6
 11
0.0000000000000001
 21
1.0
 31
0.0
 73
     1
 44
1.0
  0
POINT
  5
1692
330
13E6
100
AcDbEntity
  8
DEFPOINTS
 62
     0
440
 16777216
100
AcDbPoint
 10
709.7197760961951
 20
-548.2873443606766
 30
0.0
  0
POINT
  5
1693
330
13E6
100
AcDbEntity
  8
DEFPOINTS
 62
     0
440
 16777216
100
AcDbPoint
 10
709.7197760961951
 20
-554.2873443606766
 30
0.0
  0
POINT
  5
1694
330
13E6
100
AcDbEntity
  8
DEFPOINTS
 62
     0
440
 16777216
100
AcDbPoint
 10
723.8465703779952
 20
-554.2873443606766
 30
0.0
  0
ENDBLK
  5
13E8
330
13E6
100
AcDbEntity
  8
0
100
AcDbBlockEnd
  0
BLOCK
  5
1916
330
1915
100
AcDbEntity
  8
0
 48
3.0
100
AcDbBlockBegin
  2
INABAロゴ
 70
     0
 10
0.0
 20
0.0
 30
0.0
  3
INABAロゴ
  1

  0
LINE
  5
1917
330
1915
100
AcDbEntity
  8
C4
100
AcDbLine
 10
0.0000007494031777
 20
-0.0000005923924462
 30
0.0
 11
2.000000749403177
 21
-0.0000005923924462
 31
0.0
  0
LINE
  5
1918
330
1915
100
AcDbEntity
  8
C4
100
AcDbLine
 10
0.0000007494032914
 20
5.999999407607553
 30
0.0
 11
2.000000749403177
 21
5.999999407607553
 31
0.0
  0
LINE
  5
1919
330
1915
100
AcDbEntity
  8
C4
100
AcDbLine
 10
2.000000749403177
 20
5.999999407607553
 30
0.0
 11
2.000000749403177
 21
-0.0000005923924462
 31
0.0
  0
LINE
  5
191A
330
1915
100
AcDbEntity
  8
C4
100
AcDbLine
 10
0.0000007494032346
 20
5.999999407607553
 30
0.0
 11
0.0000007494031209
 21
-0.0000005923924462
 31
0.0
  0
LINE
  5
191B
330
1915
100
AcDbEntity
  8
C4
100
AcDbLine
 10
3.000000749403177
 20
5.999999407607553
 30
0.0
 11
3.00000074940312
 21
-0.0000005923924462
 31
0.0
  0
LINE
  5
191C
330
1915
100
AcDbEntity
  8
C4
100
AcDbLine
 10
5.000000749403177
 20
2.999999407607639
 30
0.0
 11
5.00000074940312
 21
-0.0000005923924462
 31
0.0
  0
LINE
  5
191D
330
1915
100
AcDbEntity
  8
C4
100
AcDbLine
 10
9.000000749403234
 20
5.999999407607553
 30
0.0
 11
9.000000749403177
 21
-0.0000005923924462
 31
0.0
  0
LINE
  5
191E
330
1915
100
AcDbEntity
  8
C4
100
AcDbLine
 10
7.000000749403234
 20
5.99999940760761
 30
0.0
 11
7.000000749403177
 21
2.999999407607496
 31
0.0
  0
LINE
  5
191F
330
1915
100
AcDbEntity
  8
C4
100
AcDbLine
 10
5.000000749403177
 20
2.999999407607639
 30
0.0
 11
7.000000749403177
 21
-0.0000005923924462
 31
0.0
  0
LINE
  5
1920
330
1915
100
AcDbEntity
  8
C4
100
AcDbLine
 10
5.000000749403177
 20
5.999999407607553
 30
0.0
 11
7.000000749403177
 21
2.999999407607496
 31
0.0
  0
LINE
  5
1921
330
1915
100
AcDbEntity
  8
C4
100
AcDbLine
 10
9.500000749403177
 20
-0.0000005923924462
 30
0.0
 11
11.00000074940318
 21
5.999999407607553
 31
0.0
  0
LINE
  5
1922
330
1915
100
AcDbEntity
  8
C4
100
AcDbLine
 10
11.50000074940318
 20
-0.0000005923924462
 30
0.0
 11
12.50000074940318
 21
3.99999940760744
 31
0.0
  0
LINE
  5
1923
330
1915
100
AcDbEntity
  8
C4
100
AcDbLine
 10
15.50000074940317
 20
-0.0000005923924462
 30
0.0
 11
14.00000074940318
 21
5.999999407607553
 31
0.0
  0
LINE
  5
1924
330
1915
100
AcDbEntity
  8
C4
100
AcDbLine
 10
11.87500074940317
 20
1.499999407607553
 30
0.0
 11
13.12500074940318
 21
1.499999407607525
 31
0.0
  0
LINE
  5
1925
330
1915
100
AcDbEntity
  8
C4
100
AcDbLine
 10
13.12500074940318
 20
1.499999407607525
 30
0.0
 11
12.50000074940318
 21
3.99999940760744
 31
0.0
  0
LINE
  5
1926
330
1915
100
AcDbEntity
  8
C4
100
AcDbLine
 10
11.87500074940317
 20
1.499999407607553
 30
0.0
 11
12.37500074940317
 21
-0.0000005923924462
 31
0.0
  0
LINE
  5
1927
330
1915
100
AcDbEntity
  8
C4
100
AcDbLine
 10
16.00000074940318
 20
-0.0000005923924462
 30
0.0
 11
16.00000074940318
 21
5.999999407607553
 31
0.0
  0
LINE
  5
1928
330
1915
100
AcDbEntity
  8
C4
100
AcDbLine
 10
18.00000074940312
 20
1.399999407607559
 30
0.0
 11
18.00000074940317
 21
2.249999407607553
 31
0.0
  0
LINE
  5
1929
330
1915
100
AcDbEntity
  8
C4
100
AcDbLine
 10
18.00000074940317
 20
3.749999407607553
 30
0.0
 11
19.77500074940321
 21
3.749999407607553
 31
0.0
  0
LINE
  5
192A
330
1915
100
AcDbEntity
  8
C4
100
AcDbLine
 10
18.00000074940323
 20
2.249999407607553
 30
0.0
 11
19.77500074940321
 21
2.249999407607553
 31
0.0
  0
LINE
  5
192B
330
1915
100
AcDbEntity
  8
C4
100
AcDbLine
 10
18.00000074940317
 20
4.599999407607548
 30
0.0
 11
19.77500074940321
 21
4.599999407607548
 31
0.0
  0
LINE
  5
192C
330
1915
100
AcDbEntity
  8
C4
100
AcDbLine
 10
18.00000074940312
 20
1.399999407607559
 30
0.0
 11
19.77500074940321
 21
1.399999407607559
 31
0.0
  0
ARC
  5
192D
330
1915
100
AcDbEntity
  8
C4
100
AcDbCircle
 10
19.77500074940321
 20
4.174999407607565
 30
0.0
 40
0.425
100
AcDbArc
 50
270.0
 51
90.0
  0
ARC
  5
192E
330
1915
100
AcDbEntity
  8
C4
100
AcDbCircle
 10
20.71810822603869
 20
4.239368566486085
 30
0.0
 40
1.783054781389808
100
AcDbArc
 50
315.9662536629796
 51
80.9036439828637
  0
ARC
  5
192F
330
1915
100
AcDbEntity
  8
C4
100
AcDbCircle
 10
19.77500074940321
 20
1.82499940760757
 30
0.0
 40
0.425
100
AcDbArc
 50
270.0
 51
90.0
  0
ARC
  5
1930
330
1915
100
AcDbEntity
  8
C4
100
AcDbCircle
 10
20.71810822603869
 20
1.760630248729079
 30
0.0
 40
1.783054781389769
100
AcDbArc
 50
279.096356017136
 51
44.03374633701921
  0
LINE
  5
1931
330
1915
100
AcDbEntity
  8
C4
100
AcDbLine
 10
22.50000074940318
 20
-0.0000005923924462
 30
0.0
 11
24.00000074940318
 21
5.999999407607553
 31
0.0
  0
LINE
  5
1932
330
1915
100
AcDbEntity
  8
C4
100
AcDbLine
 10
24.50000074940318
 20
-0.0000005923924462
 30
0.0
 11
25.50000074940318
 21
3.99999940760744
 31
0.0
  0
LINE
  5
1933
330
1915
100
AcDbEntity
  8
C4
100
AcDbLine
 10
28.50000074940318
 20
-0.0000005923924462
 30
0.0
 11
27.00000074940318
 21
5.999999407607553
 31
0.0
  0
LINE
  5
1934
330
1915
100
AcDbEntity
  8
C4
100
AcDbLine
 10
24.87500074940318
 20
1.499999407607553
 30
0.0
 11
26.12500074940318
 21
1.499999407607525
 31
0.0
  0
LINE
  5
1935
330
1915
100
AcDbEntity
  8
C4
100
AcDbLine
 10
26.12500074940318
 20
1.499999407607525
 30
0.0
 11
25.50000074940318
 21
3.99999940760744
 31
0.0
  0
LINE
  5
1936
330
1915
100
AcDbEntity
  8
C4
100
AcDbLine
 10
24.87500074940318
 20
1.499999407607553
 30
0.0
 11
25.37500074940318
 21
-0.0000005923924462
 31
0.0
  0
LINE
  5
1937
330
1915
100
AcDbEntity
  8
C4
100
AcDbLine
 10
18.00000074940317
 20
3.749999407607582
 30
0.0
 11
18.00000074940317
 21
4.599999407607548
 31
0.0
  0
LINE
  5
1938
330
1915
100
AcDbEntity
  8
C4
100
AcDbLine
 10
3.00000074940312
 20
-0.0000005923924462
 30
0.0
 11
5.000000749403177
 21
-0.0000005923924462
 31
0.0
  0
LINE
  5
1939
330
1915
100
AcDbEntity
  8
C4
100
AcDbLine
 10
3.000000749403177
 20
5.999999407607553
 30
0.0
 11
5.000000749403177
 21
5.999999407607553
 31
0.0
  0
LINE
  5
193A
330
1915
100
AcDbEntity
  8
C4
100
AcDbLine
 10
7.000000749403177
 20
5.999999407607582
 30
0.0
 11
9.000000749403291
 21
5.999999407607525
 31
0.0
  0
LINE
  5
193B
330
1915
100
AcDbEntity
  8
C4
100
AcDbLine
 10
7.000000749403177
 20
-0.0000005923924462
 30
0.0
 11
9.000000749403291
 21
-0.0000005923924462
 31
0.0
  0
LINE
  5
193C
330
1915
100
AcDbEntity
  8
C4
100
AcDbLine
 10
9.500000749403234
 20
-0.0000005923924462
 30
0.0
 11
11.50000074940318
 21
-0.0000005923924462
 31
0.0
  0
LINE
  5
193D
330
1915
100
AcDbEntity
  8
C4
100
AcDbLine
 10
11.00000074940318
 20
5.999999407607525
 30
0.0
 11
14.00000074940312
 21
5.999999407607525
 31
0.0
  0
LINE
  5
193E
330
1915
100
AcDbEntity
  8
C4
100
AcDbLine
 10
12.37500074940306
 20
-0.0000005923924462
 30
0.0
 11
15.50000074940323
 21
-0.0000005923924746
 31
0.0
  0
LINE
  5
193F
330
1915
100
AcDbEntity
  8
C4
100
AcDbLine
 10
16.00000074940318
 20
-0.0000005923924746
 30
0.0
 11
21.00000074940301
 21
-0.0000005923924178
 31
0.0
  0
LINE
  5
1940
330
1915
100
AcDbEntity
  8
C4
100
AcDbLine
 10
16.00000074940318
 20
5.999999407607553
 30
0.0
 11
21.00000074940352
 21
5.999999407607553
 31
0.0
  0
LINE
  5
1941
330
1915
100
AcDbEntity
  8
C4
100
AcDbLine
 10
24.00000074940318
 20
5.999999407607553
 30
0.0
 11
27.00000074940312
 21
5.999999407607553
 31
0.0
  0
LINE
  5
1942
330
1915
100
AcDbEntity
  8
C4
100
AcDbLine
 10
22.50000074940329
 20
-0.0000005923923894
 30
0.0
 11
24.50000074940312
 21
-0.0000005923924746
 31
0.0
  0
LINE
  5
1943
330
1915
100
AcDbEntity
  8
C4
100
AcDbLine
 10
25.37500074940318
 20
-0.0000005923924178
 30
0.0
 11
28.50000074940312
 21
-0.0000005923924178
 31
0.0
  0
ENDBLK
  5
1944
330
1915
100
AcDbEntity
  8
0
 48
3.0
100
AcDbBlockEnd
  0
BLOCK
  5
1A79
330
1A78
100
AcDbEntity
  8
0
100
AcDbBlockBegin
  2
*D18
 70
     1
 10
0.0
 20
0.0
 30
0.0
  3
*D18
  1

  0
LINE
  5
1B06
330
1A78
100
AcDbEntity
  8
2寸法線
 62
     0
440
 16777216
370
    -2
100
AcDbLine
 10
157.9979601205505
 20
185.4124508777575
 30
0.0
 11
83.61985022643276
 21
185.4124508777575
 31
0.0
  0
LINE
  5
1B07
330
1A78
100
AcDbEntity
  8
2寸法線
 62
     0
440
 16777216
370
    -2
100
AcDbLine
 10
119.1976249988548
 20
94.41245087775758
 30
0.0
 11
83.61985022643272
 21
94.4124508777576
 31
0.0
  0
LINE
  5
1B08
330
1A78
100
AcDbEntity
  8
2寸法線
 62
     0
440
 16777216
370
    -2
100
AcDbLine
 10
84.61985022643276
 20
183.6124508777575
 30
0.0
 11
84.61985022643274
 21
96.2124508777576
 31
0.0
  0
INSERT
  5
1B09
330
1A78
100
AcDbEntity
  8
2寸法線
 62
     0
440
 16777216
370
    -2
100
AcDbBlockReference
  2
2
 10
84.61985022643276
 20
185.4124508777575
 30
0.0
 41
1.8
 42
1.8
 43
1.8
 50
90.0
  0
INSERT
  5
1B0A
330
1A78
100
AcDbEntity
  8
2寸法線
 62
     0
440
 16777216
370
    -2
100
AcDbBlockReference
  2
2
 10
84.61985022643274
 20
94.4124508777576
 30
0.0
 41
1.8
 42
1.8
 43
1.8
 50
270.0
  0
MTEXT
  5
1B0B
330
1A78
100
AcDbEntity
  8
2寸法線
 62
     0
440
 16777216
100
AcDbMText
 10
80.11985022643273
 20
139.9124508777576
 30
0.0
 40
8.0
 41
0.0
 46
0.0
 71
     5
 72
     1
  1
\A1;91
 11
0.0000000000000001
 21
1.0
 31
0.0
 73
     1
 44
1.0
  0
POINT
  5
1B0C
330
1A78
100
AcDbEntity
  8
DEFPOINTS
 62
     0
440
 16777216
100
AcDbPoint
 10
158.9979601205505
 20
185.4124508777575
 30
0.0
  0
POINT
  5
1B0D
330
1A78
100
AcDbEntity
  8
DEFPOINTS
 62
     0
440
 16777216
100
AcDbPoint
 10
120.1976249988548
 20
94.41245087775758
 30
0.0
  0
POINT
  5
1B0E
330
1A78
100
AcDbEntity
  8
DEFPOINTS
 62
     0
440
 16777216
100
AcDbPoint
 10
84.61985022643274
 20
94.4124508777576
 30
0.0
  0
ENDBLK
  5
1A7A
330
1A78
100
AcDbEntity
  8
0
100
AcDbBlockEnd
  0
BLOCK
  5
1A85
330
1A84
100
AcDbEntity
  8
0
100
AcDbBlockBegin
  2
*D19
 70
     1
 10
0.0
 20
0.0
 30
0.0
  3
*D19
  1

  0
LINE
  5
1B0F
330
1A84
100
AcDbEntity
  8
2寸法線
 62
     0
440
 16777216
370
    -2
100
AcDbLine
 10
159.9979601205508
 20
248.4124508777576
 30
0.0
 11
244.2601521996798
 21
248.4124508777575
 31
0.0
  0
LINE
  5
1B10
330
1A84
100
AcDbEntity
  8
2寸法線
 62
     0
440
 16777216
370
    -2
100
AcDbLine
 10
198.7982952422479
 20
94.41245087775758
 30
0.0
 11
244.2601521996798
 21
94.41245087775756
 31
0.0
  0
LINE
  5
1B11
330
1A84
100
AcDbEntity
  8
2寸法線
 62
     0
440
 16777216
370
    -2
100
AcDbLine
 10
243.2601521996798
 20
246.6124508777575
 30
0.0
 11
243.2601521996797
 21
96.21245087775756
 31
0.0
  0
INSERT
  5
1B12
330
1A84
100
AcDbEntity
  8
2寸法線
 62
     0
440
 16777216
370
    -2
100
AcDbBlockReference
  2
2
 10
243.2601521996798
 20
248.4124508777575
 30
0.0
 41
1.8
 42
1.8
 43
1.8
 50
90.0
  0
INSERT
  5
1B13
330
1A84
100
AcDbEntity
  8
2寸法線
 62
     0
440
 16777216
370
    -2
100
AcDbBlockReference
  2
2
 10
243.2601521996797
 20
94.41245087775756
 30
0.0
 41
1.8
 42
1.8
 43
1.8
 50
270.0
  0
MTEXT
  5
1B14
330
1A84
100
AcDbEntity
  8
2寸法線
 62
     0
440
 16777216
100
AcDbMText
 10
238.7601521996797
 20
171.4124508777575
 30
0.0
 40
8.0
 41
0.0
 46
0.0
 71
     5
 72
     1
  1
\A1;154
 11
0.0000000000000001
 21
1.0
 31
0.0
 73
     1
 44
1.0
  0
POINT
  5
1B15
330
1A84
100
AcDbEntity
  8
DEFPOINTS
 62
     0
440
 16777216
100
AcDbPoint
 10
158.9979601205508
 20
248.4124508777576
 30
0.0
  0
POINT
  5
1B16
330
1A84
100
AcDbEntity
  8
DEFPOINTS
 62
     0
440
 16777216
100
AcDbPoint
 10
197.7982952422479
 20
94.41245087775758
 30
0.0
  0
POINT
  5
1B17
330
1A84
100
AcDbEntity
  8
DEFPOINTS
 62
     0
440
 16777216
100
AcDbPoint
 10
243.2601521996797
 20
94.41245087775756
 30
0.0
  0
ENDBLK
  5
1A86
330
1A84
100
AcDbEntity
  8
0
100
AcDbBlockEnd
  0
BLOCK
  5
1A91
330
1A90
100
AcDbEntity
  8
0
100
AcDbBlockBegin
  2
*D20
 70
     1
 10
0.0
 20
0.0
 30
0.0
  3
*D20
  1

  0
LINE
  5
1B18
330
1A90
100
AcDbEntity
  8
2寸法線
 62
     0
440
 16777216
370
    -2
100
AcDbLine
 10
199.798295242246
 20
185.4124508777575
 30
0.0
 11
212.4620433379381
 21
185.4124508777575
 31
0.0
  0
LINE
  5
1B19
330
1A90
100
AcDbEntity
  8
2寸法線
 62
     0
440
 16777216
370
    -2
100
AcDbLine
 10
199.798295242246
 20
181.4124508777575
 30
0.0
 11
212.4620433379381
 21
181.4124508777575
 31
0.0
  0
LINE
  5
1B1A
330
1A90
100
AcDbEntity
  8
2寸法線
 62
     0
440
 16777216
370
    -2
100
AcDbLine
 10
211.4620433379381
 20
179.6124508777575
 30
0.0
 11
211.4620433379381
 21
177.8124508777575
 31
0.0
  0
LINE
  5
1B1B
330
1A90
100
AcDbEntity
  8
2寸法線
 62
     0
440
 16777216
370
    -2
100
AcDbLine
 10
211.4620433379381
 20
187.2124508777575
 30
0.0
 11
211.4620433379382
 21
196.2646748477479
 31
0.0
  0
LINE
  5
1B1C
330
1A90
100
AcDbEntity
  8
2寸法線
 62
     0
440
 16777216
370
    -2
100
AcDbLine
 10
211.4620433379381
 20
181.4124508777575
 30
0.0
 11
211.4620433379381
 21
185.4124508777575
 31
0.0
  0
INSERT
  5
1B1D
330
1A90
100
AcDbEntity
  8
2寸法線
 62
     0
440
 16777216
370
    -2
100
AcDbBlockReference
  2
2
 10
211.4620433379381
 20
181.4124508777575
 30
0.0
 41
1.8
 42
1.8
 43
1.8
 50
90.0
  0
INSERT
  5
1B1E
330
1A90
100
AcDbEntity
  8
2寸法線
 62
     0
440
 16777216
370
    -2
100
AcDbBlockReference
  2
2
 10
211.4620433379381
 20
185.4124508777575
 30
0.0
 41
1.8
 42
1.8
 43
1.8
 50
270.0
  0
MTEXT
  5
1B1F
330
1A90
100
AcDbEntity
  8
2寸法線
 62
     0
440
 16777216
100
AcDbMText
 10
206.9620433379381
 20
193.0980081810813
 30
0.0
 40
8.0
 41
0.0
 46
0.0
 71
     5
 72
     1
  1
\A1;4
 11
0.0000000000000001
 21
1.0
 31
0.0
 73
     1
 44
1.0
  0
POINT
  5
1B20
330
1A90
100
AcDbEntity
  8
DEFPOINTS
 62
     0
440
 16777216
100
AcDbPoint
 10
198.798295242246
 20
185.4124508777575
 30
0.0
  0
POINT
  5
1B21
330
1A90
100
AcDbEntity
  8
DEFPOINTS
 62
     0
440
 16777216
100
AcDbPoint
 10
198.798295242246
 20
181.4124508777575
 30
0.0
  0
POINT
  5
1B22
330
1A90
100
AcDbEntity
  8
DEFPOINTS
 62
     0
440
 16777216
100
AcDbPoint
 10
211.4620433379381
 20
181.4124508777575
 30
0.0
  0
ENDBLK
  5
1A92
330
1A90
100
AcDbEntity
  8
0
100
AcDbBlockEnd
  0
BLOCK
  5
1ACA
330
1AC9
100
AcDbEntity
  8
0
100
AcDbBlockBegin
  2
*D21
 70
     1
 10
0.0
 20
0.0
 30
0.0
  3
*D21
  1

  0
LINE
  5
1B8A
330
1AC9
100
AcDbEntity
  8
2寸法線
 62
     0
440
 16777216
370
    -2
100
AcDbLine
 10
1049.314504462143
 20
-548.2873445992472
 30
0.0
 11
968.2662867464209
 21
-548.2873445992472
 31
0.0
  0
LINE
  5
1B8B
330
1AC9
100
AcDbEntity
  8
2寸法線
 62
     0
440
 16777216
370
    -2
100
AcDbLine
 10
1050.314504462143
 20
-646.0873445992473
 30
0.0
 11
968.2662867464209
 21
-646.0873445992473
 31
0.0
  0
LINE
  5
1B8C
330
1AC9
100
AcDbEntity
  8
2寸法線
 62
     0
440
 16777216
370
    -2
100
AcDbLine
 10
969.2662867464209
 20
-550.0873445992472
 30
0.0
 11
969.2662867464209
 21
-644.2873445992473
 31
0.0
  0
INSERT
  5
1B8D
330
1AC9
100
AcDbEntity
  8
2寸法線
 62
     0
440
 16777216
370
    -2
100
AcDbBlockReference
  2
2
 10
969.2662867464209
 20
-548.2873445992472
 30
0.0
 41
1.8
 42
1.8
 43
1.8
 50
90.0
  0
INSERT
  5
1B8E
330
1AC9
100
AcDbEntity
  8
2寸法線
 62
     0
440
 16777216
370
    -2
100
AcDbBlockReference
  2
2
 10
969.2662867464209
 20
-646.0873445992473
 30
0.0
 41
1.8
 42
1.8
 43
1.8
 50
270.0
  0
MTEXT
  5
1B8F
330
1AC9
100
AcDbEntity
  8
2寸法線
 62
     0
440
 16777216
100
AcDbMText
 10
964.7662867464209
 20
-599.4111290514784
 30
0.0
 40
8.0
 41
0.0
 46
0.0
 71
     5
 72
     1
  1
\A1;97.8
 11
0.0000000000000001
 21
1.0
 31
0.0
 73
     1
 44
1.0
  0
POINT
  5
1B90
330
1AC9
100
AcDbEntity
  8
DEFPOINTS
 62
     0
440
 16777216
100
AcDbPoint
 10
1050.314504462143
 20
-548.2873445992472
 30
0.0
  0
POINT
  5
1B91
330
1AC9
100
AcDbEntity
  8
DEFPOINTS
 62
     0
440
 16777216
100
AcDbPoint
 10
1051.314504462143
 20
-646.0873445992473
 30
0.0
  0
POINT
  5
1B92
330
1AC9
100
AcDbEntity
  8
DEFPOINTS
 62
     0
440
 16777216
100
AcDbPoint
 10
969.2662867464209
 20
-646.0873445992473
 30
0.0
  0
ENDBLK
  5
1ACB
330
1AC9
100
AcDbEntity
  8
0
100
AcDbBlockEnd
  0
BLOCK
  5
1B76
330
1B75
100
AcDbEntity
  8
0
100
AcDbBlockBegin
  2
*D22
 70
     1
 10
0.0
 20
0.0
 30
0.0
  3
*D22
  1

  0
LINE
  5
1B81
330
1B75
100
AcDbEntity
  8
2寸法線
 62
     0
440
 16777216
370
    -2
100
AcDbLine
 10
666.0197760962034
 20
-548.2873443606766
 30
0.0
 11
583.9715583804808
 21
-548.2873443606766
 31
0.0
  0
LINE
  5
1B82
330
1B75
100
AcDbEntity
  8
2寸法線
 62
     0
440
 16777216
370
    -2
100
AcDbLine
 10
666.0197760962034
 20
-652.0873443606767
 30
0.0
 11
583.9715583804808
 21
-652.0873443606767
 31
0.0
  0
LINE
  5
1B83
330
1B75
100
AcDbEntity
  8
2寸法線
 62
     0
440
 16777216
370
    -2
100
AcDbLine
 10
584.9715583804807
 20
-550.0873443606765
 30
0.0
 11
584.9715583804807
 21
-650.2873443606768
 31
0.0
  0
INSERT
  5
1B84
330
1B75
100
AcDbEntity
  8
2寸法線
 62
     0
440
 16777216
370
    -2
100
AcDbBlockReference
  2
2
 10
584.9715583804807
 20
-548.2873443606766
 30
0.0
 41
1.8
 42
1.8
 43
1.8
 50
90.0
  0
INSERT
  5
1B85
330
1B75
100
AcDbEntity
  8
2寸法線
 62
     0
440
 16777216
370
    -2
100
AcDbBlockReference
  2
2
 10
584.9715583804807
 20
-652.0873443606767
 30
0.0
 41
1.8
 42
1.8
 43
1.8
 50
270.0
  0
MTEXT
  5
1B86
330
1B75
100
AcDbEntity
  8
2寸法線
 62
     0
440
 16777216
100
AcDbMText
 10
580.4715583804809
 20
-605.4111288129079
 30
0.0
 40
8.0
 41
0.0
 46
0.0
 71
     5
 72
     1
  1
\A1;103.8
 11
0.0000000000000001
 21
1.0
 31
0.0
 73
     1
 44
1.0
  0
POINT
  5
1B87
330
1B75
100
AcDbEntity
  8
DEFPOINTS
 62
     0
440
 16777216
100
AcDbPoint
 10
667.0197760962034
 20
-548.2873443606766
 30
0.0
  0
POINT
  5
1B88
330
1B75
100
AcDbEntity
  8
DEFPOINTS
 62
     0
440
 16777216
100
AcDbPoint
 10
667.0197760962034
 20
-652.0873443606767
 30
0.0
  0
POINT
  5
1B89
330
1B75
100
AcDbEntity
  8
DEFPOINTS
 62
     0
440
 16777216
100
AcDbPoint
 10
584.9715583804807
 20
-652.0873443606767
 30
0.0
  0
ENDBLK
  5
1B77
330
1B75
100
AcDbEntity
  8
0
100
AcDbBlockEnd
  0
BLOCK
  5
2421
330
2420
100
AcDbEntity
  8
0
100
AcDbBlockBegin
  2
*D24
 70
     1
 10
0.0
 20
0.0
 30
0.0
  3
*D24
  1

  0
LINE
  5
2422
330
2420
100
AcDbEntity
  8
0
 62
     0
440
 16777216
370
    -2
100
AcDbLine
 10
103.2924195437537
 20
767.5218937230138
 30
0.0
 11
58.83709179330145
 21
767.5218937230138
 31
0.0
  0
LINE
  5
2423
330
2420
100
AcDbEntity
  8
0
 62
     0
440
 16777216
370
    -2
100
AcDbLine
 10
103.2924195437536
 20
706.5218937230136
 30
0.0
 11
58.83709179330144
 21
706.5218937230136
 31
0.0
  0
LINE
  5
2424
330
2420
100
AcDbEntity
  8
0
 62
     0
440
 16777216
370
    -2
100
AcDbLine
 10
60.08709179330145
 20
765.0218937230138
 30
0.0
 11
60.08709179330144
 21
709.0218937230137
 31
0.0
  0
SOLID
  5
2425
330
2420
100
AcDbEntity
  8
0
 62
     0
440
 16777216
100
AcDbTrace
 10
59.67042512663478
 20
765.0218937230138
 30
0.0
 11
60.50375845996811
 21
765.0218937230138
 31
0.0
 12
60.08709179330145
 22
767.5218937230138
 32
0.0
 13
60.08709179330145
 23
767.5218937230138
 33
0.0
  0
SOLID
  5
2426
330
2420
100
AcDbEntity
  8
0
 62
     0
440
 16777216
100
AcDbTrace
 10
59.67042512663478
 20
709.0218937230137
 30
0.0
 11
60.50375845996811
 21
709.0218937230137
 31
0.0
 12
60.08709179330144
 22
706.5218937230136
 32
0.0
 13
60.08709179330144
 23
706.5218937230136
 33
0.0
  0
MTEXT
  5
2427
330
2420
100
AcDbEntity
  8
0
 62
     0
440
 16777216
100
AcDbMText
 10
55.46209179330133
 20
736.5218937230138
 30
0.0
 40
8.0
 41
0.0
 46
0.0
 71
     5
 72
     1
  1
\A1;61
 11
0.0000000000000001
 21
1.0
 31
0.0
 73
     1
 44
1.0
  0
POINT
  5
2428
330
2420
100
AcDbEntity
  8
DEFPOINTS
 62
     0
440
 16777216
100
AcDbPoint
 10
103.9174195437537
 20
767.5218937230138
 30
0.0
  0
POINT
  5
2429
330
2420
100
AcDbEntity
  8
DEFPOINTS
 62
     0
440
 16777216
100
AcDbPoint
 10
103.9174195437537
 20
706.5218937230136
 30
0.0
  0
POINT
  5
242A
330
2420
100
AcDbEntity
  8
DEFPOINTS
 62
     0
440
 16777216
100
AcDbPoint
 10
60.08709179330144
 20
706.5218937230136
 30
0.0
  0
ENDBLK
  5
242B
330
2420
100
AcDbEntity
  8
0
100
AcDbBlockEnd
  0
BLOCK
  5
2785
330
2784
100
AcDbEntity
  8
0
100
AcDbBlockBegin
  2
*D26
 70
     1
 10
0.0
 20
0.0
 30
0.0
  3
*D26
  1

  0
LINE
  5
2790
330
2784
100
AcDbEntity
  8
0
 62
     0
440
 16777216
370
    -2
100
AcDbLine
 10
-97.76369838879311
 20
133.8761118016505
 30
0.0
 11
-142.2190261392454
 21
133.8761118016505
 31
0.0
  0
LINE
  5
2791
330
2784
100
AcDbEntity
  8
0
 62
     0
440
 16777216
370
    -2
100
AcDbLine
 10
-97.76369838879316
 20
72.87611180165038
 30
0.0
 11
-142.2190261392454
 21
72.87611180165038
 31
0.0
  0
LINE
  5
2792
330
2784
100
AcDbEntity
  8
0
 62
     0
440
 16777216
370
    -2
100
AcDbLine
 10
-140.9690261392454
 20
131.3761118016505
 30
0.0
 11
-140.9690261392454
 21
75.37611180165038
 31
0.0
  0
SOLID
  5
2793
330
2784
100
AcDbEntity
  8
0
 62
     0
440
 16777216
100
AcDbTrace
 10
-141.3856928059121
 20
131.3761118016505
 30
0.0
 11
-140.5523594725788
 21
131.3761118016505
 31
0.0
 12
-140.9690261392454
 22
133.8761118016505
 32
0.0
 13
-140.9690261392454
 23
133.8761118016505
 33
0.0
  0
SOLID
  5
2794
330
2784
100
AcDbEntity
  8
0
 62
     0
440
 16777216
100
AcDbTrace
 10
-141.3856928059121
 20
75.37611180165038
 30
0.0
 11
-140.5523594725788
 21
75.37611180165038
 31
0.0
 12
-140.9690261392454
 22
72.87611180165038
 32
0.0
 13
-140.9690261392454
 23
72.87611180165038
 33
0.0
  0
MTEXT
  5
2795
330
2784
100
AcDbEntity
  8
0
 62
     0
440
 16777216
100
AcDbMText
 10
-145.5940261392455
 20
102.8761118016505
 30
0.0
 40
8.0
 41
0.0
 46
0.0
 71
     5
 72
     1
  1
61
 11
0.0000000000000001
 21
1.0
 31
0.0
 73
     1
 44
1.0
  0
POINT
  5
2796
330
2784
100
AcDbEntity
  8
DEFPOINTS
 62
     0
440
 16777216
100
AcDbPoint
 10
-97.13869838879311
 20
133.8761118016505
 30
0.0
  0
POINT
  5
2797
330
2784
100
AcDbEntity
  8
DEFPOINTS
 62
     0
440
 16777216
100
AcDbPoint
 10
-97.13869838879316
 20
72.87611180165038
 30
0.0
  0
POINT
  5
2798
330
2784
100
AcDbEntity
  8
DEFPOINTS
 62
     0
440
 16777216
100
AcDbPoint
 10
-140.9690261392454
 20
72.87611180165038
 30
0.0
  0
ENDBLK
  5
2786
330
2784
100
AcDbEntity
  8
0
100
AcDbBlockEnd
  0
BLOCK
  5
279C
330
279B
100
AcDbEntity
  8
0
100
AcDbBlockBegin
  2
*D27
 70
     1
 10
0.0
 20
0.0
 30
0.0
  3
*D27
  1

  0
LINE
  5
279D
330
279B
100
AcDbEntity
  8
2寸法線
 62
     0
440
 16777216
370
    -2
100
AcDbLine
 10
570.9384215252326
 20
396.5984853621108
 30
0.0
 11
570.9384215252326
 21
411.5576734327619
 31
0.0
  0
LINE
  5
279E
330
279B
100
AcDbEntity
  8
2寸法線
 62
     0
440
 16777216
370
    -2
100
AcDbLine
 10
502.9384215252323
 20
382.0274175502456
 30
0.0
 11
502.9384215252323
 21
411.5576734327619
 31
0.0
  0
LINE
  5
279F
330
279B
100
AcDbEntity
  8
2寸法線
 62
     0
440
 16777216
370
    -2
100
AcDbLine
 10
568.4384215252325
 20
410.3076734327619
 30
0.0
 11
505.4384215252324
 21
410.3076734327619
 31
0.0
  0
SOLID
  5
27A0
330
279B
100
AcDbEntity
  8
2寸法線
 62
     0
440
 16777216
100
AcDbTrace
 10
568.4384215252325
 20
410.7243400994286
 30
0.0
 11
568.4384215252325
 21
409.8910067660952
 31
0.0
 12
570.9384215252326
 22
410.3076734327619
 32
0.0
 13
570.9384215252326
 23
410.3076734327619
 33
0.0
  0
SOLID
  5
27A1
330
279B
100
AcDbEntity
  8
2寸法線
 62
     0
440
 16777216
100
AcDbTrace
 10
505.4384215252324
 20
410.7243400994286
 30
0.0
 11
505.4384215252324
 21
409.8910067660952
 31
0.0
 12
502.9384215252323
 22
410.3076734327619
 32
0.0
 13
502.9384215252323
 23
410.3076734327619
 33
0.0
  0
MTEXT
  5
27A2
330
279B
100
AcDbEntity
  8
2寸法線
 62
     0
440
 16777216
100
AcDbMText
 10
536.9384215252324
 20
414.9326734327619
 30
0.0
 40
8.0
 41
0.0
 46
0.0
 71
     5
 72
     1
  1
\A1;68
 73
     1
 44
1.0
  0
POINT
  5
27A3
330
279B
100
AcDbEntity
  8
DEFPOINTS
 62
     0
440
 16777216
100
AcDbPoint
 10
570.9384215252326
 20
395.9734853621108
 30
0.0
  0
POINT
  5
27A4
330
279B
100
AcDbEntity
  8
DEFPOINTS
 62
     0
440
 16777216
100
AcDbPoint
 10
502.9384215252323
 20
381.4024175502456
 30
0.0
  0
POINT
  5
27A5
330
279B
100
AcDbEntity
  8
DEFPOINTS
 62
     0
440
 16777216
100
AcDbPoint
 10
502.9384215252323
 20
410.3076734327619
 30
0.0
  0
ENDBLK
  5
27A6
330
279B
100
AcDbEntity
  8
0
100
AcDbBlockEnd
  0
BLOCK
  5
27A8
330
27A7
100
AcDbEntity
  8
0
100
AcDbBlockBegin
  2
*D28
 70
     1
 10
0.0
 20
0.0
 30
0.0
  3
*D28
  1

  0
LINE
  5
27A9
330
27A7
100
AcDbEntity
  8
2寸法線
 62
     0
440
 16777216
370
    -2
100
AcDbLine
 10
570.520842408032
 20
190.1802919659008
 30
0.0
 11
570.520842408032
 21
217.2157330226692
 31
0.0
  0
LINE
  5
27AA
330
27A7
100
AcDbEntity
  8
2寸法線
 62
     0
440
 16777216
370
    -2
100
AcDbLine
 10
497.520842408032
 20
170.6092241540356
 30
0.0
 11
497.520842408032
 21
217.2157330226692
 31
0.0
  0
LINE
  5
27AB
330
27A7
100
AcDbEntity
  8
2寸法線
 62
     0
440
 16777216
370
    -2
100
AcDbLine
 10
568.020842408032
 20
215.9657330226691
 30
0.0
 11
500.020842408032
 21
215.9657330226691
 31
0.0
  0
SOLID
  5
27AC
330
27A7
100
AcDbEntity
  8
2寸法線
 62
     0
440
 16777216
100
AcDbTrace
 10
568.020842408032
 20
216.3823996893358
 30
0.0
 11
568.020842408032
 21
215.5490663560025
 31
0.0
 12
570.520842408032
 22
215.9657330226691
 32
0.0
 13
570.520842408032
 23
215.9657330226691
 33
0.0
  0
SOLID
  5
27AD
330
27A7
100
AcDbEntity
  8
2寸法線
 62
     0
440
 16777216
100
AcDbTrace
 10
500.020842408032
 20
216.3823996893358
 30
0.0
 11
500.020842408032
 21
215.5490663560025
 31
0.0
 12
497.520842408032
 22
215.9657330226691
 32
0.0
 13
497.520842408032
 23
215.9657330226691
 33
0.0
  0
MTEXT
  5
27AE
330
27A7
100
AcDbEntity
  8
2寸法線
 62
     0
440
 16777216
100
AcDbMText
 10
534.020842408032
 20
220.5907330226692
 30
0.0
 40
8.0
 41
0.0
 46
0.0
 71
     5
 72
     1
  1
\A1;73
 73
     1
 44
1.0
  0
POINT
  5
27AF
330
27A7
100
AcDbEntity
  8
DEFPOINTS
 62
     0
440
 16777216
100
AcDbPoint
 10
570.520842408032
 20
189.5552919659008
 30
0.0
  0
POINT
  5
27B0
330
27A7
100
AcDbEntity
  8
DEFPOINTS
 62
     0
440
 16777216
100
AcDbPoint
 10
497.520842408032
 20
169.9842241540356
 30
0.0
  0
POINT
  5
27B1
330
27A7
100
AcDbEntity
  8
DEFPOINTS
 62
     0
440
 16777216
100
AcDbPoint
 10
497.520842408032
 20
215.9657330226691
 30
0.0
  0
ENDBLK
  5
27B2
330
27A7
100
AcDbEntity
  8
0
100
AcDbBlockEnd
  0
BLOCK
  5
28C6
330
28C5
100
AcDbEntity
  8
0
100
AcDbBlockBegin
  2
*D30
 70
     1
 10
0.0
 20
0.0
 30
0.0
  3
*D30
  1

  0
LINE
  5
28DD
330
28C5
100
AcDbEntity
  8
2寸法線
 62
     0
440
 16777216
370
    -2
100
AcDbLine
 10
-1684.977098624
 20
-263.9764742011843
 30
0.0
 11
-1684.977098624
 21
-249.0172861305332
 31
0.0
  0
LINE
  5
28DE
330
28C5
100
AcDbEntity
  8
2寸法線
 62
     0
440
 16777216
370
    -2
100
AcDbLine
 10
-1752.977098624
 20
-278.5475420130495
 30
0.0
 11
-1752.977098624
 21
-249.0172861305332
 31
0.0
  0
LINE
  5
28DF
330
28C5
100
AcDbEntity
  8
2寸法線
 62
     0
440
 16777216
370
    -2
100
AcDbLine
 10
-1687.477098624
 20
-250.2672861305332
 30
0.0
 11
-1750.477098624001
 21
-250.2672861305332
 31
0.0
  0
SOLID
  5
28E0
330
28C5
100
AcDbEntity
  8
2寸法線
 62
     0
440
 16777216
100
AcDbTrace
 10
-1687.477098624
 20
-249.8506194638665
 30
0.0
 11
-1687.477098624
 21
-250.6839527971998
 31
0.0
 12
-1684.977098624
 22
-250.2672861305332
 32
0.0
 13
-1684.977098624
 23
-250.2672861305332
 33
0.0
  0
SOLID
  5
28E1
330
28C5
100
AcDbEntity
  8
2寸法線
 62
     0
440
 16777216
100
AcDbTrace
 10
-1750.477098624001
 20
-249.8506194638665
 30
0.0
 11
-1750.477098624001
 21
-250.6839527971998
 31
0.0
 12
-1752.977098624
 22
-250.2672861305332
 32
0.0
 13
-1752.977098624
 23
-250.2672861305332
 33
0.0
  0
MTEXT
  5
28E2
330
28C5
100
AcDbEntity
  8
2寸法線
 62
     0
440
 16777216
100
AcDbMText
 10
-1718.977098624
 20
-245.6422861305332
 30
0.0
 40
8.0
 41
0.0
 46
0.0
 71
     5
 72
     1
  1
68
 73
     1
 44
1.0
  0
POINT
  5
28E3
330
28C5
100
AcDbEntity
  8
DEFPOINTS
 62
     0
440
 16777216
100
AcDbPoint
 10
-1684.977098624
 20
-264.6014742011843
 30
0.0
  0
POINT
  5
28E4
330
28C5
100
AcDbEntity
  8
DEFPOINTS
 62
     0
440
 16777216
100
AcDbPoint
 10
-1752.977098624
 20
-279.1725420130495
 30
0.0
  0
POINT
  5
28E5
330
28C5
100
AcDbEntity
  8
DEFPOINTS
 62
     0
440
 16777216
100
AcDbPoint
 10
-1752.977098624
 20
-250.2672861305332
 30
0.0
  0
ENDBLK
  5
28C7
330
28C5
100
AcDbEntity
  8
0
100
AcDbBlockEnd
  0
BLOCK
  5
28D2
330
28D1
100
AcDbEntity
  8
0
100
AcDbBlockBegin
  2
*D31
 70
     1
 10
0.0
 20
0.0
 30
0.0
  3
*D31
  1

  0
LINE
  5
28E6
330
28D1
100
AcDbEntity
  8
2寸法線
 62
     0
440
 16777216
370
    -2
100
AcDbLine
 10
-1685.394677741201
 20
-470.3946675973943
 30
0.0
 11
-1685.394677741201
 21
-443.3592265406259
 31
0.0
  0
LINE
  5
28E7
330
28D1
100
AcDbEntity
  8
2寸法線
 62
     0
440
 16777216
370
    -2
100
AcDbLine
 10
-1758.394677741201
 20
-489.9657354092595
 30
0.0
 11
-1758.394677741201
 21
-443.3592265406259
 31
0.0
  0
LINE
  5
28E8
330
28D1
100
AcDbEntity
  8
2寸法線
 62
     0
440
 16777216
370
    -2
100
AcDbLine
 10
-1687.894677741201
 20
-444.6092265406259
 30
0.0
 11
-1755.894677741201
 21
-444.6092265406259
 31
0.0
  0
SOLID
  5
28E9
330
28D1
100
AcDbEntity
  8
2寸法線
 62
     0
440
 16777216
100
AcDbTrace
 10
-1687.894677741201
 20
-444.1925598739593
 30
0.0
 11
-1687.894677741201
 21
-445.0258932072926
 31
0.0
 12
-1685.394677741201
 22
-444.6092265406259
 32
0.0
 13
-1685.394677741201
 23
-444.6092265406259
 33
0.0
  0
SOLID
  5
28EA
330
28D1
100
AcDbEntity
  8
2寸法線
 62
     0
440
 16777216
100
AcDbTrace
 10
-1755.894677741201
 20
-444.1925598739593
 30
0.0
 11
-1755.894677741201
 21
-445.0258932072926
 31
0.0
 12
-1758.394677741201
 22
-444.6092265406259
 32
0.0
 13
-1758.394677741201
 23
-444.6092265406259
 33
0.0
  0
MTEXT
  5
28EB
330
28D1
100
AcDbEntity
  8
2寸法線
 62
     0
440
 16777216
100
AcDbMText
 10
-1721.894677741201
 20
-439.984226540626
 30
0.0
 40
8.0
 41
0.0
 46
0.0
 71
     5
 72
     1
  1
73
 73
     1
 44
1.0
  0
POINT
  5
28EC
330
28D1
100
AcDbEntity
  8
DEFPOINTS
 62
     0
440
 16777216
100
AcDbPoint
 10
-1685.394677741201
 20
-471.0196675973943
 30
0.0
  0
POINT
  5
28ED
330
28D1
100
AcDbEntity
  8
DEFPOINTS
 62
     0
440
 16777216
100
AcDbPoint
 10
-1758.394677741201
 20
-490.5907354092595
 30
0.0
  0
POINT
  5
28EE
330
28D1
100
AcDbEntity
  8
DEFPOINTS
 62
     0
440
 16777216
100
AcDbPoint
 10
-1758.394677741201
 20
-444.6092265406259
 30
0.0
  0
ENDBLK
  5
28D3
330
28D1
100
AcDbEntity
  8
0
100
AcDbBlockEnd
  0
BLOCK
  5
28F2
330
28F1
100
AcDbEntity
  8
0
100
AcDbBlockBegin
  2
*U32
 70
     1
 10
0.0
 20
0.0
 30
0.0
  3
*U32
  1

  0
SOLID
  5
28F3
330
28F1
100
AcDbEntity
  8
0
  6
Continuous
 62
     0
100
AcDbTrace
 10
0.666666666665568
 20
0.0000000000000004
 30
0.0
 11
0.9999999999983517
 21
0.2679491924306774
 31
0.0
 12
0.0
 22
0.0
 32
0.0
 13
0.0
 23
0.0
 33
0.0
210
0.0
220
0.0
230
-1.0
  0
SOLID
  5
28F4
330
28F1
100
AcDbEntity
  8
0
  6
Continuous
 62
     0
100
AcDbTrace
 10
0.666666666665568
 20
0.0000000000000004
 30
0.0
 11
0.0
 21
0.0
 31
0.0
 12
0.9999999999983524
 22
-0.267949192430676
 32
0.0
 13
0.9999999999983524
 23
-0.267949192430676
 33
0.0
210
0.0
220
0.0
230
-1.0
  0
SOLID
  5
28F5
330
28F1
100
AcDbEntity
  8
0
  6
Continuous
 62
     0
100
AcDbTrace
 10
0.666666666665568
 20
0.0000000000000004
 30
0.0
 11
0.9999999999983524
 21
-0.267949192430676
 31
0.0
 12
0.9999999999983517
 22
0.2679491924306774
 32
0.0
 13
0.9999999999983517
 23
0.2679491924306774
 33
0.0
210
0.0
220
0.0
230
-1.0
  0
ENDBLK
  5
28F6
330
28F1
100
AcDbEntity
  8
0
100
AcDbBlockEnd
  0
BLOCK
  5
28F8
330
28F7
100
AcDbEntity
  8
0
100
AcDbBlockBegin
  2
*D33
 70
     1
 10
0.0
 20
0.0
 30
0.0
  3
*D33
  1

  0
LINE
  5
28F9
330
28F7
100
AcDbEntity
  8
2寸法線
 62
     0
440
 16777216
370
    -2
100
AcDbLine
 10
658.5672913017908
 20
139.5992084573975
 30
0.0
 11
584.1891814076729
 21
139.5992084573975
 31
0.0
  0
LINE
  5
28FA
330
28F7
100
AcDbEntity
  8
2寸法線
 62
     0
440
 16777216
370
    -2
100
AcDbLine
 10
619.766956180095
 20
48.59920845739754
 30
0.0
 11
584.1891814076729
 21
48.59920845739755
 31
0.0
  0
LINE
  5
28FB
330
28F7
100
AcDbEntity
  8
2寸法線
 62
     0
440
 16777216
370
    -2
100
AcDbLine
 10
585.1891814076729
 20
137.7992084573975
 30
0.0
 11
585.1891814076729
 21
50.39920845739755
 31
0.0
  0
INSERT
  5
28FC
330
28F7
100
AcDbEntity
  8
2寸法線
 62
     0
440
 16777216
370
    -2
100
AcDbBlockReference
  2
2
 10
585.1891814076729
 20
139.5992084573975
 30
0.0
 41
1.8
 42
1.8
 43
1.8
 50
90.0
  0
INSERT
  5
28FD
330
28F7
100
AcDbEntity
  8
2寸法線
 62
     0
440
 16777216
370
    -2
100
AcDbBlockReference
  2
2
 10
585.1891814076729
 20
48.59920845739755
 30
0.0
 41
1.8
 42
1.8
 43
1.8
 50
270.0
  0
MTEXT
  5
28FE
330
28F7
100
AcDbEntity
  8
2寸法線
 62
     0
440
 16777216
100
AcDbMText
 10
580.6891814076729
 20
94.0992084573976
 30
0.0
 40
8.0
 41
0.0
 46
0.0
 71
     5
 72
     1
  1
\A1;91
 11
0.0000000000000001
 21
1.0
 31
0.0
 73
     1
 44
1.0
  0
POINT
  5
28FF
330
28F7
100
AcDbEntity
  8
DEFPOINTS
 62
     0
440
 16777216
100
AcDbPoint
 10
659.5672913017907
 20
139.5992084573975
 30
0.0
  0
POINT
  5
2900
330
28F7
100
AcDbEntity
  8
DEFPOINTS
 62
     0
440
 16777216
100
AcDbPoint
 10
620.7669561800951
 20
48.59920845739754
 30
0.0
  0
POINT
  5
2901
330
28F7
100
AcDbEntity
  8
DEFPOINTS
 62
     0
440
 16777216
100
AcDbPoint
 10
585.1891814076729
 20
48.59920845739755
 30
0.0
  0
ENDBLK
  5
2902
330
28F7
100
AcDbEntity
  8
0
100
AcDbBlockEnd
  0
BLOCK
  5
2904
330
2903
100
AcDbEntity
  8
0
100
AcDbBlockBegin
  2
*D34
 70
     1
 10
0.0
 20
0.0
 30
0.0
  3
*D34
  1

  0
LINE
  5
2905
330
2903
100
AcDbEntity
  8
2寸法線
 62
     0
440
 16777216
370
    -2
100
AcDbLine
 10
664.2363797482494
 20
-188.3361669863909
 30
0.0
 11
573.6884100982494
 21
-188.3361669863909
 31
0.0
  0
LINE
  5
2906
330
2903
100
AcDbEntity
  8
2寸法線
 62
     0
440
 16777216
370
    -2
100
AcDbLine
 10
625.3363797482493
 20
-292.1361669863913
 30
0.0
 11
573.6884100982492
 21
-292.1361669863913
 31
0.0
  0
LINE
  5
2907
330
2903
100
AcDbEntity
  8
2寸法線
 62
     0
440
 16777216
370
    -2
100
AcDbLine
 10
574.6884100982494
 20
-190.1361669863909
 30
0.0
 11
574.6884100982493
 21
-290.3361669863913
 31
0.0
  0
INSERT
  5
2908
330
2903
100
AcDbEntity
  8
2寸法線
 62
     0
440
 16777216
370
    -2
100
AcDbBlockReference
  2
2
 10
574.6884100982494
 20
-188.3361669863909
 30
0.0
 41
1.8
 42
1.8
 43
1.8
 50
90.0
  0
INSERT
  5
2909
330
2903
100
AcDbEntity
  8
2寸法線
 62
     0
440
 16777216
370
    -2
100
AcDbBlockReference
  2
2
 10
574.6884100982493
 20
-292.1361669863913
 30
0.0
 41
1.8
 42
1.8
 43
1.8
 50
270.0
  0
MTEXT
  5
290A
330
2903
100
AcDbEntity
  8
2寸法線
 62
     0
440
 16777216
100
AcDbMText
 10
570.1884100982494
 20
-240.236166986391
 30
0.0
 40
8.0
 41
0.0
 46
0.0
 71
     5
 72
     1
  1
\A1;103.8
 11
0.0000000000000001
 21
1.0
 31
0.0
 73
     1
 44
1.0
  0
POINT
  5
290B
330
2903
100
AcDbEntity
  8
DEFPOINTS
 62
     0
440
 16777216
100
AcDbPoint
 10
665.2363797482494
 20
-188.3361669863909
 30
0.0
  0
POINT
  5
290C
330
2903
100
AcDbEntity
  8
DEFPOINTS
 62
     0
440
 16777216
100
AcDbPoint
 10
626.3363797482493
 20
-292.1361669863913
 30
0.0
  0
POINT
  5
290D
330
2903
100
AcDbEntity
  8
DEFPOINTS
 62
     0
440
 16777216
100
AcDbPoint
 10
574.6884100982493
 20
-292.1361669863913
 30
0.0
  0
ENDBLK
  5
290E
330
2903
100
AcDbEntity
  8
0
100
AcDbBlockEnd
  0
BLOCK
  5
2910
330
290F
100
AcDbEntity
  8
0
100
AcDbBlockBegin
  2
*D35
 70
     1
 10
0.0
 20
0.0
 30
0.0
  3
*D35
  1

  0
LINE
  5
2911
330
290F
100
AcDbEntity
  8
2寸法線
 62
     0
440
 16777216
370
    -2
100
AcDbLine
 10
660.5672913017911
 20
202.5992084573975
 30
0.0
 11
744.82948338092
 21
202.5992084573975
 31
0.0
  0
LINE
  5
2912
330
290F
100
AcDbEntity
  8
2寸法線
 62
     0
440
 16777216
370
    -2
100
AcDbLine
 10
699.3676264234882
 20
48.59920845739753
 30
0.0
 11
744.82948338092
 21
48.59920845739752
 31
0.0
  0
LINE
  5
2913
330
290F
100
AcDbEntity
  8
2寸法線
 62
     0
440
 16777216
370
    -2
100
AcDbLine
 10
743.82948338092
 20
200.7992084573975
 30
0.0
 11
743.82948338092
 21
50.39920845739752
 31
0.0
  0
INSERT
  5
2914
330
290F
100
AcDbEntity
  8
2寸法線
 62
     0
440
 16777216
370
    -2
100
AcDbBlockReference
  2
2
 10
743.82948338092
 20
202.5992084573975
 30
0.0
 41
1.8
 42
1.8
 43
1.8
 50
90.0
  0
INSERT
  5
2915
330
290F
100
AcDbEntity
  8
2寸法線
 62
     0
440
 16777216
370
    -2
100
AcDbBlockReference
  2
2
 10
743.82948338092
 20
48.59920845739752
 30
0.0
 41
1.8
 42
1.8
 43
1.8
 50
270.0
  0
MTEXT
  5
2916
330
290F
100
AcDbEntity
  8
2寸法線
 62
     0
440
 16777216
100
AcDbMText
 10
739.32948338092
 20
125.5992084573976
 30
0.0
 40
8.0
 41
0.0
 46
0.0
 71
     5
 72
     1
  1
\A1;154
 11
0.0000000000000001
 21
1.0
 31
0.0
 73
     1
 44
1.0
  0
POINT
  5
2917
330
290F
100
AcDbEntity
  8
DEFPOINTS
 62
     0
440
 16777216
100
AcDbPoint
 10
659.5672913017911
 20
202.5992084573975
 30
0.0
  0
POINT
  5
2918
330
290F
100
AcDbEntity
  8
DEFPOINTS
 62
     0
440
 16777216
100
AcDbPoint
 10
698.3676264234881
 20
48.59920845739753
 30
0.0
  0
POINT
  5
2919
330
290F
100
AcDbEntity
  8
DEFPOINTS
 62
     0
440
 16777216
100
AcDbPoint
 10
743.82948338092
 20
48.59920845739752
 30
0.0
  0
ENDBLK
  5
291A
330
290F
100
AcDbEntity
  8
0
100
AcDbBlockEnd
  0
BLOCK
  5
291C
330
291B
100
AcDbEntity
  8
0
100
AcDbBlockBegin
  2
*D36
 70
     1
 10
0.0
 20
0.0
 30
0.0
  3
*D36
  1

  0
LINE
  5
291D
330
291B
100
AcDbEntity
  8
2寸法線
 62
     0
440
 16777216
370
    -2
100
AcDbLine
 10
666.2363797482498
 20
-115.1361669863919
 30
0.0
 11
765.4557869629794
 21
-115.1361669863919
 31
0.0
  0
LINE
  5
291E
330
291B
100
AcDbEntity
  8
2寸法線
 62
     0
440
 16777216
370
    -2
100
AcDbLine
 10
705.1363797482496
 20
-292.1361669863913
 30
0.0
 11
765.4557869629793
 21
-292.1361669863913
 31
0.0
  0
LINE
  5
291F
330
291B
100
AcDbEntity
  8
2寸法線
 62
     0
440
 16777216
370
    -2
100
AcDbLine
 10
764.4557869629794
 20
-116.9361669863919
 30
0.0
 11
764.4557869629793
 21
-290.3361669863913
 31
0.0
  0
INSERT
  5
2920
330
291B
100
AcDbEntity
  8
2寸法線
 62
     0
440
 16777216
370
    -2
100
AcDbBlockReference
  2
2
 10
764.4557869629794
 20
-115.1361669863919
 30
0.0
 41
1.8
 42
1.8
 43
1.8
 50
90.0
  0
INSERT
  5
2921
330
291B
100
AcDbEntity
  8
2寸法線
 62
     0
440
 16777216
370
    -2
100
AcDbBlockReference
  2
2
 10
764.4557869629793
 20
-292.1361669863913
 30
0.0
 41
1.8
 42
1.8
 43
1.8
 50
270.0
  0
MTEXT
  5
2922
330
291B
100
AcDbEntity
  8
2寸法線
 62
     0
440
 16777216
100
AcDbMText
 10
759.9557869629794
 20
-203.6361669863915
 30
0.0
 40
8.0
 41
0.0
 46
0.0
 71
     5
 72
     1
  1
\A1;177
 11
0.0000000000000001
 21
1.0
 31
0.0
 73
     1
 44
1.0
  0
POINT
  5
2923
330
291B
100
AcDbEntity
  8
DEFPOINTS
 62
     0
440
 16777216
100
AcDbPoint
 10
665.2363797482498
 20
-115.1361669863919
 30
0.0
  0
POINT
  5
2924
330
291B
100
AcDbEntity
  8
DEFPOINTS
 62
     0
440
 16777216
100
AcDbPoint
 10
704.1363797482496
 20
-292.1361669863913
 30
0.0
  0
POINT
  5
2925
330
291B
100
AcDbEntity
  8
DEFPOINTS
 62
     0
440
 16777216
100
AcDbPoint
 10
764.4557869629793
 20
-292.1361669863913
 30
0.0
  0
ENDBLK
  5
2926
330
291B
100
AcDbEntity
  8
0
100
AcDbBlockEnd
  0
BLOCK
  5
2928
330
2927
100
AcDbEntity
  8
0
100
AcDbBlockBegin
  2
*D37
 70
     1
 10
0.0
 20
0.0
 30
0.0
  3
*D37
  1

  0
LINE
  5
2929
330
2927
100
AcDbEntity
  8
2寸法線
 62
     0
440
 16777216
370
    -2
100
AcDbLine
 10
666.0197760962034
 20
-475.0873443606766
 30
0.0
 11
758.0019011235313
 21
-475.0873443606766
 31
0.0
  0
LINE
  5
292A
330
2927
100
AcDbEntity
  8
2寸法線
 62
     0
440
 16777216
370
    -2
100
AcDbLine
 10
666.0197760962034
 20
-652.0873443606767
 30
0.0
 11
758.0019011235313
 21
-652.0873443606767
 31
0.0
  0
LINE
  5
292B
330
2927
100
AcDbEntity
  8
2寸法線
 62
     0
440
 16777216
370
    -2
100
AcDbLine
 10
757.0019011235313
 20
-476.8873443606767
 30
0.0
 11
757.0019011235313
 21
-650.2873443606768
 31
0.0
  0
INSERT
  5
292C
330
2927
100
AcDbEntity
  8
2寸法線
 62
     0
440
 16777216
370
    -2
100
AcDbBlockReference
  2
2
 10
757.0019011235313
 20
-475.0873443606766
 30
0.0
 41
1.8
 42
1.8
 43
1.8
 50
90.0
  0
INSERT
  5
292D
330
2927
100
AcDbEntity
  8
2寸法線
 62
     0
440
 16777216
370
    -2
100
AcDbBlockReference
  2
2
 10
757.0019011235313
 20
-652.0873443606767
 30
0.0
 41
1.8
 42
1.8
 43
1.8
 50
270.0
  0
MTEXT
  5
292E
330
2927
100
AcDbEntity
  8
2寸法線
 62
     0
440
 16777216
100
AcDbMText
 10
752.5019011235314
 20
-563.5873443606766
 30
0.0
 40
8.0
 41
0.0
 46
0.0
 71
     5
 72
     1
  1
\A1;177
 11
0.0000000000000001
 21
1.0
 31
0.0
 73
     1
 44
1.0
  0
POINT
  5
292F
330
2927
100
AcDbEntity
  8
DEFPOINTS
 62
     0
440
 16777216
100
AcDbPoint
 10
665.0197760962035
 20
-475.0873443606766
 30
0.0
  0
POINT
  5
2930
330
2927
100
AcDbEntity
  8
DEFPOINTS
 62
     0
440
 16777216
100
AcDbPoint
 10
665.0197760962035
 20
-652.0873443606767
 30
0.0
  0
POINT
  5
2931
330
2927
100
AcDbEntity
  8
DEFPOINTS
 62
     0
440
 16777216
100
AcDbPoint
 10
757.0019011235313
 20
-652.0873443606767
 30
0.0
  0
ENDBLK
  5
2932
330
2927
100
AcDbEntity
  8
0
100
AcDbBlockEnd
  0
BLOCK
  5
2934
330
2933
100
AcDbEntity
  8
0
100
AcDbBlockBegin
  2
*D38
 70
     1
 10
0.0
 20
0.0
 30
0.0
  3
*D38
  1

  0
LINE
  5
2935
330
2933
100
AcDbEntity
  8
2寸法線
 62
     0
440
 16777216
370
    -2
100
AcDbLine
 10
706.1363797482497
 20
-188.3361669863909
 30
0.0
 11
719.9511827385708
 21
-188.3361669863909
 31
0.0
  0
LINE
  5
2936
330
2933
100
AcDbEntity
  8
2寸法線
 62
     0
440
 16777216
370
    -2
100
AcDbLine
 10
706.1363797482497
 20
-194.3361669863909
 30
0.0
 11
719.9511827385708
 21
-194.3361669863909
 31
0.0
  0
LINE
  5
2937
330
2933
100
AcDbEntity
  8
2寸法線
 62
     0
440
 16777216
370
    -2
100
AcDbLine
 10
718.9511827385708
 20
-192.5361669863909
 30
0.0
 11
718.9511827385708
 21
-190.1361669863909
 31
0.0
  0
LINE
  5
2938
330
2933
100
AcDbEntity
  8
2寸法線
 62
     0
440
 16777216
370
    -2
100
AcDbLine
 10
718.9511827385708
 20
-188.3361669863909
 30
0.0
 11
718.9511827385708
 21
-175.5063135451555
 31
0.0
  0
INSERT
  5
2939
330
2933
100
AcDbEntity
  8
2寸法線
 62
     0
440
 16777216
370
    -2
100
AcDbBlockReference
  2
2
 10
718.9511827385708
 20
-194.3361669863909
 30
0.0
 41
1.8
 42
1.8
 43
1.8
 50
270.0
  0
INSERT
  5
293A
330
2933
100
AcDbEntity
  8
2寸法線
 62
     0
440
 16777216
370
    -2
100
AcDbBlockReference
  2
2
 10
718.9511827385708
 20
-188.3361669863909
 30
0.0
 41
1.8
 42
1.8
 43
1.8
 50
90.0
  0
MTEXT
  5
293B
330
2933
100
AcDbEntity
  8
2寸法線
 62
     0
440
 16777216
100
AcDbMText
 10
714.4511827385708
 20
-178.672980211822
 30
0.0
 40
8.0
 41
0.0
 46
0.0
 71
     5
 72
     1
  1
\A1;6
 11
0.0000000000000001
 21
1.0
 31
0.0
 73
     1
 44
1.0
  0
POINT
  5
293C
330
2933
100
AcDbEntity
  8
DEFPOINTS
 62
     0
440
 16777216
100
AcDbPoint
 10
705.1363797482497
 20
-188.3361669863909
 30
0.0
  0
POINT
  5
293D
330
2933
100
AcDbEntity
  8
DEFPOINTS
 62
     0
440
 16777216
100
AcDbPoint
 10
705.1363797482497
 20
-194.3361669863909
 30
0.0
  0
POINT
  5
293E
330
2933
100
AcDbEntity
  8
DEFPOINTS
 62
     0
440
 16777216
100
AcDbPoint
 10
718.9511827385708
 20
-194.3361669863909
 30
0.0
  0
ENDBLK
  5
293F
330
2933
100
AcDbEntity
  8
0
100
AcDbBlockEnd
  0
BLOCK
  5
2941
330
2940
100
AcDbEntity
  8
0
100
AcDbBlockBegin
  2
*D39
 70
     1
 10
0.0
 20
0.0
 30
0.0
  3
*D39
  1

  0
LINE
  5
2942
330
2940
100
AcDbEntity
  8
2寸法線
 62
     0
440
 16777216
370
    -2
100
AcDbLine
 10
700.3676264234862
 20
139.5992084573975
 30
0.0
 11
713.0313745191783
 21
139.5992084573975
 31
0.0
  0
LINE
  5
2943
330
2940
100
AcDbEntity
  8
2寸法線
 62
     0
440
 16777216
370
    -2
100
AcDbLine
 10
700.3676264234862
 20
135.5992084573975
 30
0.0
 11
713.0313745191783
 21
135.5992084573975
 31
0.0
  0
LINE
  5
2944
330
2940
100
AcDbEntity
  8
2寸法線
 62
     0
440
 16777216
370
    -2
100
AcDbLine
 10
712.0313745191784
 20
133.7992084573975
 30
0.0
 11
712.0313745191784
 21
131.9992084573975
 31
0.0
  0
LINE
  5
2945
330
2940
100
AcDbEntity
  8
2寸法線
 62
     0
440
 16777216
370
    -2
100
AcDbLine
 10
712.0313745191784
 20
141.3992084573975
 30
0.0
 11
712.0313745191784
 21
150.4514324273878
 31
0.0
  0
LINE
  5
2946
330
2940
100
AcDbEntity
  8
2寸法線
 62
     0
440
 16777216
370
    -2
100
AcDbLine
 10
712.0313745191784
 20
135.5992084573975
 30
0.0
 11
712.0313745191784
 21
139.5992084573975
 31
0.0
  0
INSERT
  5
2947
330
2940
100
AcDbEntity
  8
2寸法線
 62
     0
440
 16777216
370
    -2
100
AcDbBlockReference
  2
2
 10
712.0313745191784
 20
135.5992084573975
 30
0.0
 41
1.8
 42
1.8
 43
1.8
 50
90.0
  0
INSERT
  5
2948
330
2940
100
AcDbEntity
  8
2寸法線
 62
     0
440
 16777216
370
    -2
100
AcDbBlockReference
  2
2
 10
712.0313745191784
 20
139.5992084573975
 30
0.0
 41
1.8
 42
1.8
 43
1.8
 50
270.0
  0
MTEXT
  5
2949
330
2940
100
AcDbEntity
  8
2寸法線
 62
     0
440
 16777216
100
AcDbMText
 10
707.5313745191784
 20
147.2847657607212
 30
0.0
 40
8.0
 41
0.0
 46
0.0
 71
     5
 72
     1
  1
\A1;4
 11
0.0000000000000001
 21
1.0
 31
0.0
 73
     1
 44
1.0
  0
POINT
  5
294A
330
2940
100
AcDbEntity
  8
DEFPOINTS
 62
     0
440
 16777216
100
AcDbPoint
 10
699.3676264234863
 20
139.5992084573975
 30
0.0
  0
POINT
  5
294B
330
2940
100
AcDbEntity
  8
DEFPOINTS
 62
     0
440
 16777216
100
AcDbPoint
 10
699.3676264234863
 20
135.5992084573975
 30
0.0
  0
POINT
  5
294C
330
2940
100
AcDbEntity
  8
DEFPOINTS
 62
     0
440
 16777216
100
AcDbPoint
 10
712.0313745191784
 20
135.5992084573975
 30
0.0
  0
ENDBLK
  5
294D
330
2940
100
AcDbEntity
  8
0
100
AcDbBlockEnd
  0
BLOCK
  5
294F
330
294E
100
AcDbEntity
  8
0
100
AcDbBlockBegin
  2
*D40
 70
     1
 10
0.0
 20
0.0
 30
0.0
  3
*D40
  1

  0
LINE
  5
2950
330
294E
100
AcDbEntity
  8
2寸法線
 62
     0
440
 16777216
370
    -2
100
AcDbLine
 10
739.4363797482488
 20
-188.3361669863909
 30
0.0
 11
748.5619577835464
 21
-188.3361669863909
 31
0.0
  0
LINE
  5
2951
330
294E
100
AcDbEntity
  8
2寸法線
 62
     0
440
 16777216
370
    -2
100
AcDbLine
 10
739.4363797482488
 20
-194.3361669863909
 30
0.0
 11
748.5619577835464
 21
-194.3361669863909
 31
0.0
  0
LINE
  5
2952
330
294E
100
AcDbEntity
  8
2寸法線
 62
     0
440
 16777216
370
    -2
100
AcDbLine
 10
747.5619577835463
 20
-192.5361669863909
 30
0.0
 11
747.5619577835463
 21
-190.1361669863909
 31
0.0
  0
LINE
  5
2953
330
294E
100
AcDbEntity
  8
2寸法線
 62
     0
440
 16777216
370
    -2
100
AcDbLine
 10
747.5619577835463
 20
-188.3361669863909
 30
0.0
 11
747.5619577835463
 21
-175.9812530847188
 31
0.0
  0
INSERT
  5
2954
330
294E
100
AcDbEntity
  8
2寸法線
 62
     0
440
 16777216
370
    -2
100
AcDbBlockReference
  2
2
 10
747.5619577835463
 20
-194.3361669863909
 30
0.0
 41
1.8
 42
1.8
 43
1.8
 50
270.0
  0
INSERT
  5
2955
330
294E
100
AcDbEntity
  8
2寸法線
 62
     0
440
 16777216
370
    -2
100
AcDbBlockReference
  2
2
 10
747.5619577835463
 20
-188.3361669863909
 30
0.0
 41
1.8
 42
1.8
 43
1.8
 50
90.0
  0
MTEXT
  5
2956
330
294E
100
AcDbEntity
  8
2寸法線
 62
     0
440
 16777216
100
AcDbMText
 10
743.0619577835464
 20
-179.1479197513854
 30
0.0
 40
8.0
 41
0.0
 46
0.0
 71
     5
 72
     1
  1
\A1;6
 11
0.0000000000000001
 21
1.0
 31
0.0
 73
     1
 44
1.0
  0
POINT
  5
2957
330
294E
100
AcDbEntity
  8
DEFPOINTS
 62
     0
440
 16777216
100
AcDbPoint
 10
738.4363797482487
 20
-188.3361669863909
 30
0.0
  0
POINT
  5
2958
330
294E
100
AcDbEntity
  8
DEFPOINTS
 62
     0
440
 16777216
100
AcDbPoint
 10
738.4363797482487
 20
-194.3361669863909
 30
0.0
  0
POINT
  5
2959
330
294E
100
AcDbEntity
  8
DEFPOINTS
 62
     0
440
 16777216
100
AcDbPoint
 10
747.5619577835463
 20
-194.3361669863909
 30
0.0
  0
ENDBLK
  5
295A
330
294E
100
AcDbEntity
  8
0
100
AcDbBlockEnd
  0
BLOCK
  5
295C
330
295B
100
AcDbEntity
  8
0
100
AcDbBlockBegin
  2
*D41
 70
     1
 10
0.0
 20
0.0
 30
0.0
  3
*D41
  1

  0
LINE
  5
295D
330
295B
100
AcDbEntity
  8
2寸法線
 62
     0
440
 16777216
370
    -2
100
AcDbLine
 10
739.2197760962035
 20
-548.2873443606766
 30
0.0
 11
747.5253054955569
 21
-548.2873443606766
 31
0.0
  0
LINE
  5
295E
330
295B
100
AcDbEntity
  8
2寸法線
 62
     0
440
 16777216
370
    -2
100
AcDbLine
 10
739.2197760962035
 20
-554.2873443606765
 30
0.0
 11
747.5253054955569
 21
-554.2873443606765
 31
0.0
  0
LINE
  5
295F
330
295B
100
AcDbEntity
  8
2寸法線
 62
     0
440
 16777216
370
    -2
100
AcDbLine
 10
746.5253054955569
 20
-552.4873443606765
 30
0.0
 11
746.5253054955569
 21
-550.0873443606765
 31
0.0
  0
LINE
  5
2960
330
295B
100
AcDbEntity
  8
2寸法線
 62
     0
440
 16777216
370
    -2
100
AcDbLine
 10
746.5253054955569
 20
-548.2873443606766
 30
0.0
 11
746.5253054955569
 21
-527.4351591647504
 31
0.0
  0
INSERT
  5
2961
330
295B
100
AcDbEntity
  8
2寸法線
 62
     0
440
 16777216
370
    -2
100
AcDbBlockReference
  2
2
 10
746.5253054955569
 20
-554.2873443606765
 30
0.0
 41
1.8
 42
1.8
 43
1.8
 50
270.0
  0
INSERT
  5
2962
330
295B
100
AcDbEntity
  8
2寸法線
 62
     0
440
 16777216
370
    -2
100
AcDbBlockReference
  2
2
 10
746.5253054955569
 20
-548.2873443606766
 30
0.0
 41
1.8
 42
1.8
 43
1.8
 50
90.0
  0
MTEXT
  5
2963
330
295B
100
AcDbEntity
  8
2寸法線
 62
     0
440
 16777216
100
AcDbMText
 10
742.025305495557
 20
-530.601825831417
 30
0.0
 40
8.0
 41
0.0
 46
0.0
 71
     5
 72
     1
  1
\A1;6
 11
0.0000000000000001
 21
1.0
 31
0.0
 73
     1
 44
1.0
  0
POINT
  5
2964
330
295B
100
AcDbEntity
  8
DEFPOINTS
 62
     0
440
 16777216
100
AcDbPoint
 10
738.2197760962035
 20
-548.2873443606766
 30
0.0
  0
POINT
  5
2965
330
295B
100
AcDbEntity
  8
DEFPOINTS
 62
     0
440
 16777216
100
AcDbPoint
 10
738.2197760962035
 20
-554.2873443606765
 30
0.0
  0
POINT
  5
2966
330
295B
100
AcDbEntity
  8
DEFPOINTS
 62
     0
440
 16777216
100
AcDbPoint
 10
746.5253054955569
 20
-554.2873443606765
 30
0.0
  0
ENDBLK
  5
2967
330
295B
100
AcDbEntity
  8
0
100
AcDbBlockEnd
  0
BLOCK
  5
2969
330
2968
100
AcDbEntity
  8
0
100
AcDbBlockBegin
  2
*D42
 70
     1
 10
0.0
 20
0.0
 30
0.0
  3
*D42
  1

  0
LINE
  5
296A
330
2968
100
AcDbEntity
  8
2寸法線
 62
     0
440
 16777216
370
    -2
100
AcDbLine
 10
710.7197760961951
 20
-548.2873443606766
 30
0.0
 11
724.8465703779952
 21
-548.2873443606766
 31
0.0
  0
LINE
  5
296B
330
2968
100
AcDbEntity
  8
2寸法線
 62
     0
440
 16777216
370
    -2
100
AcDbLine
 10
710.7197760961951
 20
-554.2873443606766
 30
0.0
 11
724.8465703779952
 21
-554.2873443606766
 31
0.0
  0
LINE
  5
296C
330
2968
100
AcDbEntity
  8
2寸法線
 62
     0
440
 16777216
370
    -2
100
AcDbLine
 10
723.8465703779952
 20
-552.4873443606767
 30
0.0
 11
723.8465703779952
 21
-550.0873443606766
 31
0.0
  0
LINE
  5
296D
330
2968
100
AcDbEntity
  8
2寸法線
 62
     0
440
 16777216
370
    -2
100
AcDbLine
 10
723.8465703779952
 20
-548.2873443606766
 30
0.0
 11
723.8465703779952
 21
-530.8395620430086
 31
0.0
  0
INSERT
  5
296E
330
2968
100
AcDbEntity
  8
2寸法線
 62
     0
440
 16777216
370
    -2
100
AcDbBlockReference
  2
2
 10
723.8465703779952
 20
-554.2873443606766
 30
0.0
 41
1.8
 42
1.8
 43
1.8
 50
270.0
  0
INSERT
  5
296F
330
2968
100
AcDbEntity
  8
2寸法線
 62
     0
440
 16777216
370
    -2
100
AcDbBlockReference
  2
2
 10
723.8465703779952
 20
-548.2873443606766
 30
0.0
 41
1.8
 42
1.8
 43
1.8
 50
90.0
  0
MTEXT
  5
2970
330
2968
100
AcDbEntity
  8
2寸法線
 62
     0
440
 16777216
100
AcDbMText
 10
719.3465703779954
 20
-534.0062287096753
 30
0.0
 40
8.0
 41
0.0
 46
0.0
 71
     5
 72
     1
  1
\A1;6
 11
0.0000000000000001
 21
1.0
 31
0.0
 73
     1
 44
1.0
  0
POINT
  5
2971
330
2968
100
AcDbEntity
  8
DEFPOINTS
 62
     0
440
 16777216
100
AcDbPoint
 10
709.7197760961951
 20
-548.2873443606766
 30
0.0
  0
POINT
  5
2972
330
2968
100
AcDbEntity
  8
DEFPOINTS
 62
     0
440
 16777216
100
AcDbPoint
 10
709.7197760961951
 20
-554.2873443606766
 30
0.0
  0
POINT
  5
2973
330
2968
100
AcDbEntity
  8
DEFPOINTS
 62
     0
440
 16777216
100
AcDbPoint
 10
723.8465703779952
 20
-554.2873443606766
 30
0.0
  0
ENDBLK
  5
2974
330
2968
100
AcDbEntity
  8
0
100
AcDbBlockEnd
  0
BLOCK
  5
2976
330
2975
100
AcDbEntity
  8
0
100
AcDbBlockBegin
  2
*D43
 70
     1
 10
0.0
 20
0.0
 30
0.0
  3
*D43
  1

  0
LINE
  5
2977
330
2975
100
AcDbEntity
  8
2寸法線
 62
     0
440
 16777216
370
    -2
100
AcDbLine
 10
666.0197760962034
 20
-548.2873443606766
 30
0.0
 11
583.9715583804808
 21
-548.2873443606766
 31
0.0
  0
LINE
  5
2978
330
2975
100
AcDbEntity
  8
2寸法線
 62
     0
440
 16777216
370
    -2
100
AcDbLine
 10
666.0197760962034
 20
-652.0873443606767
 30
0.0
 11
583.9715583804808
 21
-652.0873443606767
 31
0.0
  0
LINE
  5
2979
330
2975
100
AcDbEntity
  8
2寸法線
 62
     0
440
 16777216
370
    -2
100
AcDbLine
 10
584.9715583804807
 20
-550.0873443606765
 30
0.0
 11
584.9715583804807
 21
-650.2873443606768
 31
0.0
  0
INSERT
  5
297A
330
2975
100
AcDbEntity
  8
2寸法線
 62
     0
440
 16777216
370
    -2
100
AcDbBlockReference
  2
2
 10
584.9715583804807
 20
-548.2873443606766
 30
0.0
 41
1.8
 42
1.8
 43
1.8
 50
90.0
  0
INSERT
  5
297B
330
2975
100
AcDbEntity
  8
2寸法線
 62
     0
440
 16777216
370
    -2
100
AcDbBlockReference
  2
2
 10
584.9715583804807
 20
-652.0873443606767
 30
0.0
 41
1.8
 42
1.8
 43
1.8
 50
270.0
  0
MTEXT
  5
297C
330
2975
100
AcDbEntity
  8
2寸法線
 62
     0
440
 16777216
100
AcDbMText
 10
580.4715583804809
 20
-605.4111288129079
 30
0.0
 40
8.0
 41
0.0
 46
0.0
 71
     5
 72
     1
  1
\A1;103.8
 11
0.0000000000000001
 21
1.0
 31
0.0
 73
     1
 44
1.0
  0
POINT
  5
297D
330
2975
100
AcDbEntity
  8
DEFPOINTS
 62
     0
440
 16777216
100
AcDbPoint
 10
667.0197760962034
 20
-548.2873443606766
 30
0.0
  0
POINT
  5
297E
330
2975
100
AcDbEntity
  8
DEFPOINTS
 62
     0
440
 16777216
100
AcDbPoint
 10
667.0197760962034
 20
-652.0873443606767
 30
0.0
  0
POINT
  5
297F
330
2975
100
AcDbEntity
  8
DEFPOINTS
 62
     0
440
 16777216
100
AcDbPoint
 10
584.9715583804807
 20
-652.0873443606767
 30
0.0
  0
ENDBLK
  5
2980
330
2975
100
AcDbEntity
  8
0
100
AcDbBlockEnd
  0
BLOCK
  5
2E00
330
2DFF
100
AcDbEntity
  8
0
100
AcDbBlockBegin
  2
*D45
 70
     1
 10
0.0
 20
0.0
 30
0.0
  3
*D45
  1

  0
LINE
  5
2E89
330
2DFF
100
AcDbEntity
  8
2寸法線
 62
     0
440
 16777216
370
    -2
100
AcDbLine
 10
-2056.32075183473
 20
271.7255980725138
 30
0.0
 11
-2130.698861728848
 21
271.7255980725138
 31
0.0
  0
LINE
  5
2E8A
330
2DFF
100
AcDbEntity
  8
2寸法線
 62
     0
440
 16777216
370
    -2
100
AcDbLine
 10
-2095.121086956426
 20
180.7255980725139
 30
0.0
 11
-2130.698861728848
 21
180.7255980725139
 31
0.0
  0
LINE
  5
2E8B
330
2DFF
100
AcDbEntity
  8
2寸法線
 62
     0
440
 16777216
370
    -2
100
AcDbLine
 10
-2129.698861728848
 20
269.9255980725137
 30
0.0
 11
-2129.698861728848
 21
182.5255980725139
 31
0.0
  0
INSERT
  5
2E8C
330
2DFF
100
AcDbEntity
  8
2寸法線
 62
     0
440
 16777216
370
    -2
100
AcDbBlockReference
  2
2
 10
-2129.698861728848
 20
271.7255980725138
 30
0.0
 41
1.8
 42
1.8
 43
1.8
 50
90.0
  0
INSERT
  5
2E8D
330
2DFF
100
AcDbEntity
  8
2寸法線
 62
     0
440
 16777216
370
    -2
100
AcDbBlockReference
  2
2
 10
-2129.698861728848
 20
180.7255980725139
 30
0.0
 41
1.8
 42
1.8
 43
1.8
 50
270.0
  0
MTEXT
  5
2E8E
330
2DFF
100
AcDbEntity
  8
2寸法線
 62
     0
440
 16777216
100
AcDbMText
 10
-2134.198861728847
 20
226.2255980725135
 30
0.0
 40
8.0
 41
0.0
 46
0.0
 71
     5
 72
     1
  1
\A1;91
 11
0.0000000000000001
 21
1.0
 31
0.0
 73
     1
 44
1.0
  0
POINT
  5
2E8F
330
2DFF
100
AcDbEntity
  8
DEFPOINTS
 62
     0
440
 16777216
100
AcDbPoint
 10
-2055.32075183473
 20
271.7255980725138
 30
0.0
  0
POINT
  5
2E90
330
2DFF
100
AcDbEntity
  8
DEFPOINTS
 62
     0
440
 16777216
100
AcDbPoint
 10
-2094.121086956425
 20
180.7255980725139
 30
0.0
  0
POINT
  5
2E91
330
2DFF
100
AcDbEntity
  8
DEFPOINTS
 62
     0
440
 16777216
100
AcDbPoint
 10
-2129.698861728848
 20
180.7255980725139
 30
0.0
  0
ENDBLK
  5
2E01
330
2DFF
100
AcDbEntity
  8
0
100
AcDbBlockEnd
  0
BLOCK
  5
2E0C
330
2E0B
100
AcDbEntity
  8
0
100
AcDbBlockBegin
  2
*D46
 70
     1
 10
0.0
 20
0.0
 30
0.0
  3
*D46
  1

  0
LINE
  5
2E92
330
2E0B
100
AcDbEntity
  8
2寸法線
 62
     0
440
 16777216
370
    -2
100
AcDbLine
 10
-2050.651663388271
 20
-56.20977737127464
 30
0.0
 11
-2141.199633038271
 21
-56.20977737127461
 31
0.0
  0
LINE
  5
2E93
330
2E0B
100
AcDbEntity
  8
2寸法線
 62
     0
440
 16777216
370
    -2
100
AcDbLine
 10
-2089.551663388272
 20
-160.009777371275
 30
0.0
 11
-2141.199633038271
 21
-160.0097773712749
 31
0.0
  0
LINE
  5
2E94
330
2E0B
100
AcDbEntity
  8
2寸法線
 62
     0
440
 16777216
370
    -2
100
AcDbLine
 10
-2140.199633038271
 20
-58.0097773712746
 30
0.0
 11
-2140.199633038271
 21
-158.2097773712749
 31
0.0
  0
INSERT
  5
2E95
330
2E0B
100
AcDbEntity
  8
2寸法線
 62
     0
440
 16777216
370
    -2
100
AcDbBlockReference
  2
2
 10
-2140.199633038271
 20
-56.20977737127461
 30
0.0
 41
1.8
 42
1.8
 43
1.8
 50
90.0
  0
INSERT
  5
2E96
330
2E0B
100
AcDbEntity
  8
2寸法線
 62
     0
440
 16777216
370
    -2
100
AcDbBlockReference
  2
2
 10
-2140.199633038271
 20
-160.0097773712749
 30
0.0
 41
1.8
 42
1.8
 43
1.8
 50
270.0
  0
MTEXT
  5
2E97
330
2E0B
100
AcDbEntity
  8
2寸法線
 62
     0
440
 16777216
100
AcDbMText
 10
-2144.699633038271
 20
-108.1097773712751
 30
0.0
 40
8.0
 41
0.0
 46
0.0
 71
     5
 72
     1
  1
\A1;103.8
 11
0.0000000000000001
 21
1.0
 31
0.0
 73
     1
 44
1.0
  0
POINT
  5
2E98
330
2E0B
100
AcDbEntity
  8
DEFPOINTS
 62
     0
440
 16777216
100
AcDbPoint
 10
-2049.651663388271
 20
-56.20977737127464
 30
0.0
  0
POINT
  5
2E99
330
2E0B
100
AcDbEntity
  8
DEFPOINTS
 62
     0
440
 16777216
100
AcDbPoint
 10
-2088.551663388271
 20
-160.009777371275
 30
0.0
  0
POINT
  5
2E9A
330
2E0B
100
AcDbEntity
  8
DEFPOINTS
 62
     0
440
 16777216
100
AcDbPoint
 10
-2140.199633038271
 20
-160.0097773712749
 30
0.0
  0
ENDBLK
  5
2E0D
330
2E0B
100
AcDbEntity
  8
0
100
AcDbBlockEnd
  0
BLOCK
  5
2E18
330
2E17
100
AcDbEntity
  8
0
100
AcDbBlockBegin
  2
*D47
 70
     1
 10
0.0
 20
0.0
 30
0.0
  3
*D47
  1

  0
LINE
  5
2E9B
330
2E17
100
AcDbEntity
  8
2寸法線
 62
     0
440
 16777216
370
    -2
100
AcDbLine
 10
-2054.32075183473
 20
334.7255980725138
 30
0.0
 11
-1970.058559755601
 21
334.7255980725138
 31
0.0
  0
LINE
  5
2E9C
330
2E17
100
AcDbEntity
  8
2寸法線
 62
     0
440
 16777216
370
    -2
100
AcDbLine
 10
-2015.520416713032
 20
180.7255980725138
 30
0.0
 11
-1970.058559755601
 21
180.7255980725137
 31
0.0
  0
LINE
  5
2E9D
330
2E17
100
AcDbEntity
  8
2寸法線
 62
     0
440
 16777216
370
    -2
100
AcDbLine
 10
-1971.0585597556
 20
332.9255980725138
 30
0.0
 11
-1971.0585597556
 21
182.5255980725137
 31
0.0
  0
INSERT
  5
2E9E
330
2E17
100
AcDbEntity
  8
2寸法線
 62
     0
440
 16777216
370
    -2
100
AcDbBlockReference
  2
2
 10
-1971.0585597556
 20
334.7255980725138
 30
0.0
 41
1.8
 42
1.8
 43
1.8
 50
90.0
  0
INSERT
  5
2E9F
330
2E17
100
AcDbEntity
  8
2寸法線
 62
     0
440
 16777216
370
    -2
100
AcDbBlockReference
  2
2
 10
-1971.0585597556
 20
180.7255980725137
 30
0.0
 41
1.8
 42
1.8
 43
1.8
 50
270.0
  0
MTEXT
  5
2EA0
330
2E17
100
AcDbEntity
  8
2寸法線
 62
     0
440
 16777216
100
AcDbMText
 10
-1975.5585597556
 20
257.7255980725134
 30
0.0
 40
8.0
 41
0.0
 46
0.0
 71
     5
 72
     1
  1
\A1;154
 11
0.0000000000000001
 21
1.0
 31
0.0
 73
     1
 44
1.0
  0
POINT
  5
2EA1
330
2E17
100
AcDbEntity
  8
DEFPOINTS
 62
     0
440
 16777216
100
AcDbPoint
 10
-2055.32075183473
 20
334.7255980725138
 30
0.0
  0
POINT
  5
2EA2
330
2E17
100
AcDbEntity
  8
DEFPOINTS
 62
     0
440
 16777216
100
AcDbPoint
 10
-2016.520416713032
 20
180.7255980725138
 30
0.0
  0
POINT
  5
2EA3
330
2E17
100
AcDbEntity
  8
DEFPOINTS
 62
     0
440
 16777216
100
AcDbPoint
 10
-1971.0585597556
 20
180.7255980725137
 30
0.0
  0
ENDBLK
  5
2E19
330
2E17
100
AcDbEntity
  8
0
100
AcDbBlockEnd
  0
BLOCK
  5
2E24
330
2E23
100
AcDbEntity
  8
0
100
AcDbBlockBegin
  2
*D48
 70
     1
 10
0.0
 20
0.0
 30
0.0
  3
*D48
  1

  0
LINE
  5
2EA4
330
2E23
100
AcDbEntity
  8
2寸法線
 62
     0
440
 16777216
370
    -2
100
AcDbLine
 10
-2048.651663388271
 20
16.99022262872438
 30
0.0
 11
-1949.432256173541
 21
16.99022262872435
 31
0.0
  0
LINE
  5
2EA5
330
2E23
100
AcDbEntity
  8
2寸法線
 62
     0
440
 16777216
370
    -2
100
AcDbLine
 10
-2009.751663388271
 20
-160.009777371275
 30
0.0
 11
-1949.432256173541
 21
-160.009777371275
 31
0.0
  0
LINE
  5
2EA6
330
2E23
100
AcDbEntity
  8
2寸法線
 62
     0
440
 16777216
370
    -2
100
AcDbLine
 10
-1950.432256173541
 20
15.19022262872435
 30
0.0
 11
-1950.432256173541
 21
-158.209777371275
 31
0.0
  0
INSERT
  5
2EA7
330
2E23
100
AcDbEntity
  8
2寸法線
 62
     0
440
 16777216
370
    -2
100
AcDbBlockReference
  2
2
 10
-1950.432256173541
 20
16.99022262872435
 30
0.0
 41
1.8
 42
1.8
 43
1.8
 50
90.0
  0
INSERT
  5
2EA8
330
2E23
100
AcDbEntity
  8
2寸法線
 62
     0
440
 16777216
370
    -2
100
AcDbBlockReference
  2
2
 10
-1950.432256173541
 20
-160.009777371275
 30
0.0
 41
1.8
 42
1.8
 43
1.8
 50
270.0
  0
MTEXT
  5
2EA9
330
2E23
100
AcDbEntity
  8
2寸法線
 62
     0
440
 16777216
100
AcDbMText
 10
-1954.932256173541
 20
-71.50977737127565
 30
0.0
 40
8.0
 41
0.0
 46
0.0
 71
     5
 72
     1
  1
\A1;177
 11
0.0000000000000001
 21
1.0
 31
0.0
 73
     1
 44
1.0
  0
POINT
  5
2EAA
330
2E23
100
AcDbEntity
  8
DEFPOINTS
 62
     0
440
 16777216
100
AcDbPoint
 10
-2049.651663388271
 20
16.99022262872438
 30
0.0
  0
POINT
  5
2EAB
330
2E23
100
AcDbEntity
  8
DEFPOINTS
 62
     0
440
 16777216
100
AcDbPoint
 10
-2010.751663388271
 20
-160.009777371275
 30
0.0
  0
POINT
  5
2EAC
330
2E23
100
AcDbEntity
  8
DEFPOINTS
 62
     0
440
 16777216
100
AcDbPoint
 10
-1950.432256173541
 20
-160.009777371275
 30
0.0
  0
ENDBLK
  5
2E25
330
2E23
100
AcDbEntity
  8
0
100
AcDbBlockEnd
  0
BLOCK
  5
2E30
330
2E2F
100
AcDbEntity
  8
0
100
AcDbBlockBegin
  2
*D49
 70
     1
 10
0.0
 20
0.0
 30
0.0
  3
*D49
  1

  0
LINE
  5
2EAD
330
2E2F
100
AcDbEntity
  8
2寸法線
 62
     0
440
 16777216
370
    -2
100
AcDbLine
 10
-2048.868267040317
 20
-342.9609547455604
 30
0.0
 11
-1956.886142012989
 21
-342.9609547455604
 31
0.0
  0
LINE
  5
2EAE
330
2E2F
100
AcDbEntity
  8
2寸法線
 62
     0
440
 16777216
370
    -2
100
AcDbLine
 10
-2048.868267040317
 20
-519.9609547455604
 30
0.0
 11
-1956.886142012989
 21
-519.9609547455604
 31
0.0
  0
LINE
  5
2EAF
330
2E2F
100
AcDbEntity
  8
2寸法線
 62
     0
440
 16777216
370
    -2
100
AcDbLine
 10
-1957.886142012989
 20
-344.7609547455604
 30
0.0
 11
-1957.886142012989
 21
-518.1609547455605
 31
0.0
  0
INSERT
  5
2EB0
330
2E2F
100
AcDbEntity
  8
2寸法線
 62
     0
440
 16777216
370
    -2
100
AcDbBlockReference
  2
2
 10
-1957.886142012989
 20
-342.9609547455604
 30
0.0
 41
1.8
 42
1.8
 43
1.8
 50
90.0
  0
INSERT
  5
2EB1
330
2E2F
100
AcDbEntity
  8
2寸法線
 62
     0
440
 16777216
370
    -2
100
AcDbBlockReference
  2
2
 10
-1957.886142012989
 20
-519.9609547455604
 30
0.0
 41
1.8
 42
1.8
 43
1.8
 50
270.0
  0
MTEXT
  5
2EB2
330
2E2F
100
AcDbEntity
  8
2寸法線
 62
     0
440
 16777216
100
AcDbMText
 10
-1962.386142012989
 20
-431.4609547455607
 30
0.0
 40
8.0
 41
0.0
 46
0.0
 71
     5
 72
     1
  1
\A1;177
 11
0.0000000000000001
 21
1.0
 31
0.0
 73
     1
 44
1.0
  0
POINT
  5
2EB3
330
2E2F
100
AcDbEntity
  8
DEFPOINTS
 62
     0
440
 16777216
100
AcDbPoint
 10
-2049.868267040317
 20
-342.9609547455604
 30
0.0
  0
POINT
  5
2EB4
330
2E2F
100
AcDbEntity
  8
DEFPOINTS
 62
     0
440
 16777216
100
AcDbPoint
 10
-2049.868267040317
 20
-519.9609547455604
 30
0.0
  0
POINT
  5
2EB5
330
2E2F
100
AcDbEntity
  8
DEFPOINTS
 62
     0
440
 16777216
100
AcDbPoint
 10
-1957.886142012989
 20
-519.9609547455604
 30
0.0
  0
ENDBLK
  5
2E31
330
2E2F
100
AcDbEntity
  8
0
100
AcDbBlockEnd
  0
BLOCK
  5
2E3C
330
2E3B
100
AcDbEntity
  8
0
100
AcDbBlockBegin
  2
*D50
 70
     1
 10
0.0
 20
0.0
 30
0.0
  3
*D50
  1

  0
LINE
  5
2EB6
330
2E3B
100
AcDbEntity
  8
2寸法線
 62
     0
440
 16777216
370
    -2
100
AcDbLine
 10
-2008.751663388271
 20
-56.20977737127464
 30
0.0
 11
-1994.93686039795
 21
-56.20977737127464
 31
0.0
  0
LINE
  5
2EB7
330
2E3B
100
AcDbEntity
  8
2寸法線
 62
     0
440
 16777216
370
    -2
100
AcDbLine
 10
-2008.751663388271
 20
-62.20977737127464
 30
0.0
 11
-1994.93686039795
 21
-62.20977737127465
 31
0.0
  0
LINE
  5
2EB8
330
2E3B
100
AcDbEntity
  8
2寸法線
 62
     0
440
 16777216
370
    -2
100
AcDbLine
 10
-1995.936860397949
 20
-60.40977737127465
 30
0.0
 11
-1995.936860397949
 21
-58.00977737127464
 31
0.0
  0
LINE
  5
2EB9
330
2E3B
100
AcDbEntity
  8
2寸法線
 62
     0
440
 16777216
370
    -2
100
AcDbLine
 10
-1995.936860397949
 20
-56.20977737127464
 30
0.0
 11
-1995.936860397949
 21
-43.37992393003876
 31
0.0
  0
INSERT
  5
2EBA
330
2E3B
100
AcDbEntity
  8
2寸法線
 62
     0
440
 16777216
370
    -2
100
AcDbBlockReference
  2
2
 10
-1995.936860397949
 20
-62.20977737127465
 30
0.0
 41
1.8
 42
1.8
 43
1.8
 50
270.0
  0
INSERT
  5
2EBB
330
2E3B
100
AcDbEntity
  8
2寸法線
 62
     0
440
 16777216
370
    -2
100
AcDbBlockReference
  2
2
 10
-1995.936860397949
 20
-56.20977737127464
 30
0.0
 41
1.8
 42
1.8
 43
1.8
 50
90.0
  0
MTEXT
  5
2EBC
330
2E3B
100
AcDbEntity
  8
2寸法線
 62
     0
440
 16777216
100
AcDbMText
 10
-2000.43686039795
 20
-46.54659059670575
 30
0.0
 40
8.0
 41
0.0
 46
0.0
 71
     5
 72
     1
  1
\A1;6
 11
0.0000000000000001
 21
1.0
 31
0.0
 73
     1
 44
1.0
  0
POINT
  5
2EBD
330
2E3B
100
AcDbEntity
  8
DEFPOINTS
 62
     0
440
 16777216
100
AcDbPoint
 10
-2009.751663388271
 20
-56.20977737127464
 30
0.0
  0
POINT
  5
2EBE
330
2E3B
100
AcDbEntity
  8
DEFPOINTS
 62
     0
440
 16777216
100
AcDbPoint
 10
-2009.751663388271
 20
-62.20977737127464
 30
0.0
  0
POINT
  5
2EBF
330
2E3B
100
AcDbEntity
  8
DEFPOINTS
 62
     0
440
 16777216
100
AcDbPoint
 10
-1995.936860397949
 20
-62.20977737127465
 30
0.0
  0
ENDBLK
  5
2E3D
330
2E3B
100
AcDbEntity
  8
0
100
AcDbBlockEnd
  0
BLOCK
  5
2E49
330
2E48
100
AcDbEntity
  8
0
100
AcDbBlockBegin
  2
*D51
 70
     1
 10
0.0
 20
0.0
 30
0.0
  3
*D51
  1

  0
LINE
  5
2EC0
330
2E48
100
AcDbEntity
  8
2寸法線
 62
     0
440
 16777216
370
    -2
100
AcDbLine
 10
-2014.520416713034
 20
271.7255980725138
 30
0.0
 11
-2001.856668617342
 21
271.7255980725138
 31
0.0
  0
LINE
  5
2EC1
330
2E48
100
AcDbEntity
  8
2寸法線
 62
     0
440
 16777216
370
    -2
100
AcDbLine
 10
-2014.520416713034
 20
267.7255980725138
 30
0.0
 11
-2001.856668617342
 21
267.7255980725138
 31
0.0
  0
LINE
  5
2EC2
330
2E48
100
AcDbEntity
  8
2寸法線
 62
     0
440
 16777216
370
    -2
100
AcDbLine
 10
-2002.856668617342
 20
265.9255980725138
 30
0.0
 11
-2002.856668617342
 21
264.1255980725138
 31
0.0
  0
LINE
  5
2EC3
330
2E48
100
AcDbEntity
  8
2寸法線
 62
     0
440
 16777216
370
    -2
100
AcDbLine
 10
-2002.856668617342
 20
273.5255980725138
 30
0.0
 11
-2002.856668617342
 21
282.5778220425045
 31
0.0
  0
LINE
  5
2EC4
330
2E48
100
AcDbEntity
  8
2寸法線
 62
     0
440
 16777216
370
    -2
100
AcDbLine
 10
-2002.856668617342
 20
267.7255980725138
 30
0.0
 11
-2002.856668617342
 21
271.7255980725138
 31
0.0
  0
INSERT
  5
2EC5
330
2E48
100
AcDbEntity
  8
2寸法線
 62
     0
440
 16777216
370
    -2
100
AcDbBlockReference
  2
2
 10
-2002.856668617342
 20
267.7255980725138
 30
0.0
 41
1.8
 42
1.8
 43
1.8
 50
90.0
  0
INSERT
  5
2EC6
330
2E48
100
AcDbEntity
  8
2寸法線
 62
     0
440
 16777216
370
    -2
100
AcDbBlockReference
  2
2
 10
-2002.856668617342
 20
271.7255980725138
 30
0.0
 41
1.8
 42
1.8
 43
1.8
 50
270.0
  0
MTEXT
  5
2EC7
330
2E48
100
AcDbEntity
  8
2寸法線
 62
     0
440
 16777216
100
AcDbMText
 10
-2007.356668617342
 20
279.4111553758376
 30
0.0
 40
8.0
 41
0.0
 46
0.0
 71
     5
 72
     1
  1
\A1;4
 11
0.0000000000000001
 21
1.0
 31
0.0
 73
     1
 44
1.0
  0
POINT
  5
2EC8
330
2E48
100
AcDbEntity
  8
DEFPOINTS
 62
     0
440
 16777216
100
AcDbPoint
 10
-2015.520416713034
 20
271.7255980725138
 30
0.0
  0
POINT
  5
2EC9
330
2E48
100
AcDbEntity
  8
DEFPOINTS
 62
     0
440
 16777216
100
AcDbPoint
 10
-2015.520416713034
 20
267.7255980725138
 30
0.0
  0
POINT
  5
2ECA
330
2E48
100
AcDbEntity
  8
DEFPOINTS
 62
     0
440
 16777216
100
AcDbPoint
 10
-2002.856668617342
 20
267.7255980725138
 30
0.0
  0
ENDBLK
  5
2E4A
330
2E48
100
AcDbEntity
  8
0
100
AcDbBlockEnd
  0
BLOCK
  5
2E57
330
2E56
100
AcDbEntity
  8
0
100
AcDbBlockBegin
  2
*D52
 70
     1
 10
0.0
 20
0.0
 30
0.0
  3
*D52
  1

  0
LINE
  5
2ECB
330
2E56
100
AcDbEntity
  8
2寸法線
 62
     0
440
 16777216
370
    -2
100
AcDbLine
 10
-1975.451663388272
 20
-56.20977737127464
 30
0.0
 11
-1966.326085352974
 21
-56.20977737127464
 31
0.0
  0
LINE
  5
2ECC
330
2E56
100
AcDbEntity
  8
2寸法線
 62
     0
440
 16777216
370
    -2
100
AcDbLine
 10
-1975.451663388272
 20
-62.20977737127464
 30
0.0
 11
-1966.326085352974
 21
-62.20977737127465
 31
0.0
  0
LINE
  5
2ECD
330
2E56
100
AcDbEntity
  8
2寸法線
 62
     0
440
 16777216
370
    -2
100
AcDbLine
 10
-1967.326085352974
 20
-60.40977737127465
 30
0.0
 11
-1967.326085352974
 21
-58.00977737127464
 31
0.0
  0
LINE
  5
2ECE
330
2E56
100
AcDbEntity
  8
2寸法線
 62
     0
440
 16777216
370
    -2
100
AcDbLine
 10
-1967.326085352974
 20
-56.20977737127464
 30
0.0
 11
-1967.326085352974
 21
-43.85486346960213
 31
0.0
  0
INSERT
  5
2ECF
330
2E56
100
AcDbEntity
  8
2寸法線
 62
     0
440
 16777216
370
    -2
100
AcDbBlockReference
  2
2
 10
-1967.326085352974
 20
-62.20977737127465
 30
0.0
 41
1.8
 42
1.8
 43
1.8
 50
270.0
  0
INSERT
  5
2ED0
330
2E56
100
AcDbEntity
  8
2寸法線
 62
     0
440
 16777216
370
    -2
100
AcDbBlockReference
  2
2
 10
-1967.326085352974
 20
-56.20977737127464
 30
0.0
 41
1.8
 42
1.8
 43
1.8
 50
90.0
  0
MTEXT
  5
2ED1
330
2E56
100
AcDbEntity
  8
2寸法線
 62
     0
440
 16777216
100
AcDbMText
 10
-1971.826085352974
 20
-47.02153013626912
 30
0.0
 40
8.0
 41
0.0
 46
0.0
 71
     5
 72
     1
  1
\A1;6
 11
0.0000000000000001
 21
1.0
 31
0.0
 73
     1
 44
1.0
  0
POINT
  5
2ED2
330
2E56
100
AcDbEntity
  8
DEFPOINTS
 62
     0
440
 16777216
100
AcDbPoint
 10
-1976.451663388272
 20
-56.20977737127464
 30
0.0
  0
POINT
  5
2ED3
330
2E56
100
AcDbEntity
  8
DEFPOINTS
 62
     0
440
 16777216
100
AcDbPoint
 10
-1976.451663388272
 20
-62.20977737127464
 30
0.0
  0
POINT
  5
2ED4
330
2E56
100
AcDbEntity
  8
DEFPOINTS
 62
     0
440
 16777216
100
AcDbPoint
 10
-1967.326085352974
 20
-62.20977737127465
 30
0.0
  0
ENDBLK
  5
2E58
330
2E56
100
AcDbEntity
  8
0
100
AcDbBlockEnd
  0
BLOCK
  5
2E64
330
2E63
100
AcDbEntity
  8
0
100
AcDbBlockBegin
  2
*D53
 70
     1
 10
0.0
 20
0.0
 30
0.0
  3
*D53
  1

  0
LINE
  5
2ED5
330
2E63
100
AcDbEntity
  8
2寸法線
 62
     0
440
 16777216
370
    -2
100
AcDbLine
 10
-1975.668267040317
 20
-416.1609547455602
 30
0.0
 11
-1967.362737640964
 21
-416.1609547455602
 31
0.0
  0
LINE
  5
2ED6
330
2E63
100
AcDbEntity
  8
2寸法線
 62
     0
440
 16777216
370
    -2
100
AcDbLine
 10
-1975.668267040317
 20
-422.1609547455602
 30
0.0
 11
-1967.362737640964
 21
-422.1609547455602
 31
0.0
  0
LINE
  5
2ED7
330
2E63
100
AcDbEntity
  8
2寸法線
 62
     0
440
 16777216
370
    -2
100
AcDbLine
 10
-1968.362737640963
 20
-420.3609547455602
 30
0.0
 11
-1968.362737640963
 21
-417.9609547455602
 31
0.0
  0
LINE
  5
2ED8
330
2E63
100
AcDbEntity
  8
2寸法線
 62
     0
440
 16777216
370
    -2
100
AcDbLine
 10
-1968.362737640963
 20
-416.1609547455602
 30
0.0
 11
-1968.362737640963
 21
-395.3087695496338
 31
0.0
  0
INSERT
  5
2ED9
330
2E63
100
AcDbEntity
  8
2寸法線
 62
     0
440
 16777216
370
    -2
100
AcDbBlockReference
  2
2
 10
-1968.362737640963
 20
-422.1609547455602
 30
0.0
 41
1.8
 42
1.8
 43
1.8
 50
270.0
  0
INSERT
  5
2EDA
330
2E63
100
AcDbEntity
  8
2寸法線
 62
     0
440
 16777216
370
    -2
100
AcDbBlockReference
  2
2
 10
-1968.362737640963
 20
-416.1609547455602
 30
0.0
 41
1.8
 42
1.8
 43
1.8
 50
90.0
  0
MTEXT
  5
2EDB
330
2E63
100
AcDbEntity
  8
2寸法線
 62
     0
440
 16777216
100
AcDbMText
 10
-1972.862737640964
 20
-398.4754362163008
 30
0.0
 40
8.0
 41
0.0
 46
0.0
 71
     5
 72
     1
  1
\A1;6
 11
0.0000000000000001
 21
1.0
 31
0.0
 73
     1
 44
1.0
  0
POINT
  5
2EDC
330
2E63
100
AcDbEntity
  8
DEFPOINTS
 62
     0
440
 16777216
100
AcDbPoint
 10
-1976.668267040317
 20
-416.1609547455602
 30
0.0
  0
POINT
  5
2EDD
330
2E63
100
AcDbEntity
  8
DEFPOINTS
 62
     0
440
 16777216
100
AcDbPoint
 10
-1976.668267040317
 20
-422.1609547455602
 30
0.0
  0
POINT
  5
2EDE
330
2E63
100
AcDbEntity
  8
DEFPOINTS
 62
     0
440
 16777216
100
AcDbPoint
 10
-1968.362737640963
 20
-422.1609547455602
 30
0.0
  0
ENDBLK
  5
2E65
330
2E63
100
AcDbEntity
  8
0
100
AcDbBlockEnd
  0
BLOCK
  5
2E71
330
2E70
100
AcDbEntity
  8
0
100
AcDbBlockBegin
  2
*D54
 70
     1
 10
0.0
 20
0.0
 30
0.0
  3
*D54
  1

  0
LINE
  5
2EDF
330
2E70
100
AcDbEntity
  8
2寸法線
 62
     0
440
 16777216
370
    -2
100
AcDbLine
 10
-2004.168267040325
 20
-416.1609547455603
 30
0.0
 11
-1990.041472758525
 21
-416.1609547455603
 31
0.0
  0
LINE
  5
2EE0
330
2E70
100
AcDbEntity
  8
2寸法線
 62
     0
440
 16777216
370
    -2
100
AcDbLine
 10
-2004.168267040325
 20
-422.1609547455604
 30
0.0
 11
-1990.041472758525
 21
-422.1609547455604
 31
0.0
  0
LINE
  5
2EE1
330
2E70
100
AcDbEntity
  8
2寸法線
 62
     0
440
 16777216
370
    -2
100
AcDbLine
 10
-1991.041472758525
 20
-420.3609547455603
 30
0.0
 11
-1991.041472758525
 21
-417.9609547455603
 31
0.0
  0
LINE
  5
2EE2
330
2E70
100
AcDbEntity
  8
2寸法線
 62
     0
440
 16777216
370
    -2
100
AcDbLine
 10
-1991.041472758525
 20
-416.1609547455603
 30
0.0
 11
-1991.041472758525
 21
-398.713172427892
 31
0.0
  0
INSERT
  5
2EE3
330
2E70
100
AcDbEntity
  8
2寸法線
 62
     0
440
 16777216
370
    -2
100
AcDbBlockReference
  2
2
 10
-1991.041472758525
 20
-422.1609547455604
 30
0.0
 41
1.8
 42
1.8
 43
1.8
 50
270.0
  0
INSERT
  5
2EE4
330
2E70
100
AcDbEntity
  8
2寸法線
 62
     0
440
 16777216
370
    -2
100
AcDbBlockReference
  2
2
 10
-1991.041472758525
 20
-416.1609547455603
 30
0.0
 41
1.8
 42
1.8
 43
1.8
 50
90.0
  0
MTEXT
  5
2EE5
330
2E70
100
AcDbEntity
  8
2寸法線
 62
     0
440
 16777216
100
AcDbMText
 10
-1995.541472758525
 20
-401.8798390945589
 30
0.0
 40
8.0
 41
0.0
 46
0.0
 71
     5
 72
     1
  1
\A1;6
 11
0.0000000000000001
 21
1.0
 31
0.0
 73
     1
 44
1.0
  0
POINT
  5
2EE6
330
2E70
100
AcDbEntity
  8
DEFPOINTS
 62
     0
440
 16777216
100
AcDbPoint
 10
-2005.168267040326
 20
-416.1609547455603
 30
0.0
  0
POINT
  5
2EE7
330
2E70
100
AcDbEntity
  8
DEFPOINTS
 62
     0
440
 16777216
100
AcDbPoint
 10
-2005.168267040326
 20
-422.1609547455604
 30
0.0
  0
POINT
  5
2EE8
330
2E70
100
AcDbEntity
  8
DEFPOINTS
 62
     0
440
 16777216
100
AcDbPoint
 10
-1991.041472758525
 20
-422.1609547455604
 30
0.0
  0
ENDBLK
  5
2E72
330
2E70
100
AcDbEntity
  8
0
100
AcDbBlockEnd
  0
BLOCK
  5
2E7E
330
2E7D
100
AcDbEntity
  8
0
100
AcDbBlockBegin
  2
*D55
 70
     1
 10
0.0
 20
0.0
 30
0.0
  3
*D55
  1

  0
LINE
  5
2EE9
330
2E7D
100
AcDbEntity
  8
2寸法線
 62
     0
440
 16777216
370
    -2
100
AcDbLine
 10
-2048.868267040317
 20
-416.1609547455602
 30
0.0
 11
-2130.91648475604
 21
-416.1609547455602
 31
0.0
  0
LINE
  5
2EEA
330
2E7D
100
AcDbEntity
  8
2寸法線
 62
     0
440
 16777216
370
    -2
100
AcDbLine
 10
-2048.868267040317
 20
-519.9609547455604
 30
0.0
 11
-2130.91648475604
 21
-519.9609547455604
 31
0.0
  0
LINE
  5
2EEB
330
2E7D
100
AcDbEntity
  8
2寸法線
 62
     0
440
 16777216
370
    -2
100
AcDbLine
 10
-2129.91648475604
 20
-417.9609547455602
 30
0.0
 11
-2129.91648475604
 21
-518.1609547455605
 31
0.0
  0
INSERT
  5
2EEC
330
2E7D
100
AcDbEntity
  8
2寸法線
 62
     0
440
 16777216
370
    -2
100
AcDbBlockReference
  2
2
 10
-2129.91648475604
 20
-416.1609547455602
 30
0.0
 41
1.8
 42
1.8
 43
1.8
 50
90.0
  0
INSERT
  5
2EED
330
2E7D
100
AcDbEntity
  8
2寸法線
 62
     0
440
 16777216
370
    -2
100
AcDbBlockReference
  2
2
 10
-2129.91648475604
 20
-519.9609547455604
 30
0.0
 41
1.8
 42
1.8
 43
1.8
 50
270.0
  0
MTEXT
  5
2EEE
330
2E7D
100
AcDbEntity
  8
2寸法線
 62
     0
440
 16777216
100
AcDbMText
 10
-2134.41648475604
 20
-473.2847391977916
 30
0.0
 40
8.0
 41
0.0
 46
0.0
 71
     5
 72
     1
  1
\A1;103.8
 11
0.0000000000000001
 21
1.0
 31
0.0
 73
     1
 44
1.0
  0
POINT
  5
2EEF
330
2E7D
100
AcDbEntity
  8
DEFPOINTS
 62
     0
440
 16777216
100
AcDbPoint
 10
-2047.868267040317
 20
-416.1609547455602
 30
0.0
  0
POINT
  5
2EF0
330
2E7D
100
AcDbEntity
  8
DEFPOINTS
 62
     0
440
 16777216
100
AcDbPoint
 10
-2047.868267040317
 20
-519.9609547455604
 30
0.0
  0
POINT
  5
2EF1
330
2E7D
100
AcDbEntity
  8
DEFPOINTS
 62
     0
440
 16777216
100
AcDbPoint
 10
-2129.91648475604
 20
-519.9609547455604
 30
0.0
  0
ENDBLK
  5
2E7F
330
2E7D
100
AcDbEntity
  8
0
100
AcDbBlockEnd
  0
BLOCK
  5
2EF5
330
2EF4
100
AcDbEntity
  8
0
100
AcDbBlockBegin
  2
*D56
 70
     1
 10
0.0
 20
0.0
 30
0.0
  3
*D56
  1

  0
LINE
  5
2EF6
330
2EF4
100
AcDbEntity
  8
2寸法線
 62
     0
440
 16777216
370
    -2
100
AcDbLine
 10
291.2812190658221
 20
326.2198500646615
 30
0.0
 11
265.1626233260828
 21
326.2198500646615
 31
0.0
  0
LINE
  5
2EF7
330
2EF4
100
AcDbEntity
  8
2寸法線
 62
     0
440
 16777216
370
    -2
100
AcDbLine
 10
296.7101512539567
 20
258.2198500646616
 30
0.0
 11
265.1626233260828
 21
258.2198500646616
 31
0.0
  0
LINE
  5
2EF8
330
2EF4
100
AcDbEntity
  8
2寸法線
 62
     0
440
 16777216
370
    -2
100
AcDbLine
 10
266.4126233260828
 20
323.7198500646615
 30
0.0
 11
266.4126233260828
 21
260.7198500646616
 31
0.0
  0
SOLID
  5
2EF9
330
2EF4
100
AcDbEntity
  8
2寸法線
 62
     0
440
 16777216
100
AcDbTrace
 10
265.9959566594161
 20
323.7198500646615
 30
0.0
 11
266.8292899927495
 21
323.7198500646615
 31
0.0
 12
266.4126233260828
 22
326.2198500646615
 32
0.0
 13
266.4126233260828
 23
326.2198500646615
 33
0.0
  0
SOLID
  5
2EFA
330
2EF4
100
AcDbEntity
  8
2寸法線
 62
     0
440
 16777216
100
AcDbTrace
 10
265.9959566594161
 20
260.7198500646616
 30
0.0
 11
266.8292899927495
 21
260.7198500646616
 31
0.0
 12
266.4126233260828
 22
258.2198500646616
 32
0.0
 13
266.4126233260828
 23
258.2198500646616
 33
0.0
  0
MTEXT
  5
2EFB
330
2EF4
100
AcDbEntity
  8
2寸法線
 62
     0
440
 16777216
100
AcDbMText
 10
261.7876233260827
 20
292.2198500646616
 30
0.0
 40
8.0
 41
0.0
 46
0.0
 71
     5
 72
     1
  1
\A1;68
 11
0.0000000000000001
 21
1.0
 31
0.0
 73
     1
 44
1.0
  0
POINT
  5
2EFC
330
2EF4
100
AcDbEntity
  8
DEFPOINTS
 62
     0
440
 16777216
100
AcDbPoint
 10
291.9062190658221
 20
326.2198500646615
 30
0.0
  0
POINT
  5
2EFD
330
2EF4
100
AcDbEntity
  8
DEFPOINTS
 62
     0
440
 16777216
100
AcDbPoint
 10
297.3351512539567
 20
258.2198500646616
 30
0.0
  0
POINT
  5
2EFE
330
2EF4
100
AcDbEntity
  8
DEFPOINTS
 62
     0
440
 16777216
100
AcDbPoint
 10
266.4126233260828
 20
258.2198500646616
 30
0.0
  0
ENDBLK
  5
2EFF
330
2EF4
100
AcDbEntity
  8
0
100
AcDbBlockEnd
  0
BLOCK
  5
2F01
330
2F00
100
AcDbEntity
  8
0
100
AcDbBlockBegin
  2
*D57
 70
     1
 10
0.0
 20
0.0
 30
0.0
  3
*D57
  1

  0
LINE
  5
2F02
330
2F00
100
AcDbEntity
  8
2寸法線
 62
     0
440
 16777216
370
    -2
100
AcDbLine
 10
482.8770000414981
 20
348.2198500646617
 30
0.0
 11
501.3655251337977
 21
348.2198500646617
 31
0.0
  0
LINE
  5
2F03
330
2F00
100
AcDbEntity
  8
2寸法線
 62
     0
440
 16777216
370
    -2
100
AcDbLine
 10
482.8770000414981
 20
258.2198500646616
 30
0.0
 11
501.3655251337977
 21
258.2198500646616
 31
0.0
  0
LINE
  5
2F04
330
2F00
100
AcDbEntity
  8
2寸法線
 62
     0
440
 16777216
370
    -2
100
AcDbLine
 10
500.1155251337977
 20
345.7198500646617
 30
0.0
 11
500.1155251337977
 21
260.7198500646616
 31
0.0
  0
SOLID
  5
2F05
330
2F00
100
AcDbEntity
  8
2寸法線
 62
     0
440
 16777216
100
AcDbTrace
 10
499.698858467131
 20
345.7198500646617
 30
0.0
 11
500.5321918004644
 21
345.7198500646617
 31
0.0
 12
500.1155251337977
 22
348.2198500646617
 32
0.0
 13
500.1155251337977
 23
348.2198500646617
 33
0.0
  0
SOLID
  5
2F06
330
2F00
100
AcDbEntity
  8
2寸法線
 62
     0
440
 16777216
100
AcDbTrace
 10
499.698858467131
 20
260.7198500646616
 30
0.0
 11
500.5321918004644
 21
260.7198500646616
 31
0.0
 12
500.1155251337977
 22
258.2198500646616
 32
0.0
 13
500.1155251337977
 23
258.2198500646616
 33
0.0
  0
MTEXT
  5
2F07
330
2F00
100
AcDbEntity
  8
2寸法線
 62
     0
440
 16777216
100
AcDbMText
 10
495.4905251337977
 20
303.2198500646617
 30
0.0
 40
8.0
 41
0.0
 46
0.0
 71
     5
 72
     1
  1
\A1;90
 11
0.0000000000000001
 21
1.0
 31
0.0
 73
     1
 44
1.0
  0
POINT
  5
2F08
330
2F00
100
AcDbEntity
  8
DEFPOINTS
 62
     0
440
 16777216
100
AcDbPoint
 10
482.2520000414981
 20
348.2198500646617
 30
0.0
  0
POINT
  5
2F09
330
2F00
100
AcDbEntity
  8
DEFPOINTS
 62
     0
440
 16777216
100
AcDbPoint
 10
482.2520000414981
 20
258.2198500646616
 30
0.0
  0
POINT
  5
2F0A
330
2F00
100
AcDbEntity
  8
DEFPOINTS
 62
     0
440
 16777216
100
AcDbPoint
 10
500.1155251337977
 20
258.2198500646616
 30
0.0
  0
ENDBLK
  5
2F0B
330
2F00
100
AcDbEntity
  8
0
100
AcDbBlockEnd
  0
BLOCK
  5
2F0D
330
2F0C
100
AcDbEntity
  8
0
100
AcDbBlockBegin
  2
*D58
 70
     1
 10
0.0
 20
0.0
 30
0.0
  3
*D58
  1

  0
LINE
  5
2F0E
330
2F0C
100
AcDbEntity
  8
2寸法線
 62
     0
440
 16777216
370
    -2
100
AcDbLine
 10
296.2246359231969
 20
136.5951420427302
 30
0.0
 11
260.5487366166345
 21
136.5951420427302
 31
0.0
  0
LINE
  5
2F0F
330
2F0C
100
AcDbEntity
  8
2寸法線
 62
     0
440
 16777216
370
    -2
100
AcDbLine
 10
276.6535681113315
 20
63.59514204273004
 30
0.0
 11
260.5487366166344
 21
63.59514204273004
 31
0.0
  0
LINE
  5
2F10
330
2F0C
100
AcDbEntity
  8
2寸法線
 62
     0
440
 16777216
370
    -2
100
AcDbLine
 10
261.7987366166345
 20
134.0951420427302
 30
0.0
 11
261.7987366166344
 21
66.09514204273004
 31
0.0
  0
SOLID
  5
2F11
330
2F0C
100
AcDbEntity
  8
2寸法線
 62
     0
440
 16777216
100
AcDbTrace
 10
261.3820699499678
 20
134.0951420427302
 30
0.0
 11
262.2154032833011
 21
134.0951420427302
 31
0.0
 12
261.7987366166345
 22
136.5951420427302
 32
0.0
 13
261.7987366166345
 23
136.5951420427302
 33
0.0
  0
SOLID
  5
2F12
330
2F0C
100
AcDbEntity
  8
2寸法線
 62
     0
440
 16777216
100
AcDbTrace
 10
261.3820699499677
 20
66.09514204273004
 30
0.0
 11
262.2154032833011
 21
66.09514204273004
 31
0.0
 12
261.7987366166344
 22
63.59514204273004
 32
0.0
 13
261.7987366166344
 23
63.59514204273004
 33
0.0
  0
MTEXT
  5
2F13
330
2F0C
100
AcDbEntity
  8
2寸法線
 62
     0
440
 16777216
100
AcDbMText
 10
257.1737366166344
 20
100.0951420427301
 30
0.0
 40
8.0
 41
0.0
 46
0.0
 71
     5
 72
     1
  1
\A1;73
 11
0.0000000000000001
 21
1.0
 31
0.0
 73
     1
 44
1.0
  0
POINT
  5
2F14
330
2F0C
100
AcDbEntity
  8
DEFPOINTS
 62
     0
440
 16777216
100
AcDbPoint
 10
296.849635923197
 20
136.5951420427302
 30
0.0
  0
POINT
  5
2F15
330
2F0C
100
AcDbEntity
  8
DEFPOINTS
 62
     0
440
 16777216
100
AcDbPoint
 10
277.2785681113315
 20
63.59514204273004
 30
0.0
  0
POINT
  5
2F16
330
2F0C
100
AcDbEntity
  8
DEFPOINTS
 62
     0
440
 16777216
100
AcDbPoint
 10
261.7987366166344
 20
63.59514204273004
 30
0.0
  0
ENDBLK
  5
2F17
330
2F0C
100
AcDbEntity
  8
0
100
AcDbBlockEnd
  0
BLOCK
  5
2F19
330
2F18
100
AcDbEntity
  8
0
100
AcDbBlockBegin
  2
*D59
 70
     1
 10
0.0
 20
0.0
 30
0.0
  3
*D59
  1

  0
LINE
  5
2F1A
330
2F18
100
AcDbEntity
  8
2寸法線
 62
     0
440
 16777216
370
    -2
100
AcDbLine
 10
498.9316468184947
 20
157.59514204273
 30
0.0
 11
513.0349352749226
 21
157.59514204273
 31
0.0
  0
LINE
  5
2F1B
330
2F18
100
AcDbEntity
  8
2寸法線
 62
     0
440
 16777216
370
    -2
100
AcDbLine
 10
498.9316468184947
 20
63.59514204273011
 30
0.0
 11
513.0349352749226
 21
63.59514204273011
 31
0.0
  0
LINE
  5
2F1C
330
2F18
100
AcDbEntity
  8
2寸法線
 62
     0
440
 16777216
370
    -2
100
AcDbLine
 10
511.7849352749226
 20
155.09514204273
 30
0.0
 11
511.7849352749226
 21
66.09514204273011
 31
0.0
  0
SOLID
  5
2F1D
330
2F18
100
AcDbEntity
  8
2寸法線
 62
     0
440
 16777216
100
AcDbTrace
 10
511.368268608256
 20
155.09514204273
 30
0.0
 11
512.2016019415893
 21
155.09514204273
 31
0.0
 12
511.7849352749226
 22
157.59514204273
 32
0.0
 13
511.7849352749226
 23
157.59514204273
 33
0.0
  0
SOLID
  5
2F1E
330
2F18
100
AcDbEntity
  8
2寸法線
 62
     0
440
 16777216
100
AcDbTrace
 10
511.3682686082559
 20
66.09514204273011
 30
0.0
 11
512.2016019415893
 21
66.09514204273011
 31
0.0
 12
511.7849352749226
 22
63.59514204273011
 32
0.0
 13
511.7849352749226
 23
63.59514204273011
 33
0.0
  0
MTEXT
  5
2F1F
330
2F18
100
AcDbEntity
  8
2寸法線
 62
     0
440
 16777216
100
AcDbMText
 10
507.1599352749226
 20
110.5951420427301
 30
0.0
 40
8.0
 41
0.0
 46
0.0
 71
     5
 72
     1
  1
\A1;94
 11
0.0000000000000001
 21
1.0
 31
0.0
 73
     1
 44
1.0
  0
POINT
  5
2F20
330
2F18
100
AcDbEntity
  8
DEFPOINTS
 62
     0
440
 16777216
100
AcDbPoint
 10
498.3066468184947
 20
157.59514204273
 30
0.0
  0
POINT
  5
2F21
330
2F18
100
AcDbEntity
  8
DEFPOINTS
 62
     0
440
 16777216
100
AcDbPoint
 10
498.3066468184947
 20
63.59514204273011
 30
0.0
  0
POINT
  5
2F22
330
2F18
100
AcDbEntity
  8
DEFPOINTS
 62
     0
440
 16777216
100
AcDbPoint
 10
511.7849352749226
 20
63.59514204273011
 30
0.0
  0
ENDBLK
  5
2F23
330
2F18
100
AcDbEntity
  8
0
100
AcDbBlockEnd
  0
BLOCK
  5
2F25
330
2F24
100
AcDbEntity
  8
0
100
AcDbBlockBegin
  2
*D60
 70
     1
 10
0.0
 20
0.0
 30
0.0
  3
*D60
  1

  0
LINE
  5
2F26
330
2F24
100
AcDbEntity
  8
2寸法線
 62
     0
440
 16777216
370
    -2
100
AcDbLine
 10
482.2520000414981
 20
348.8448500646617
 30
0.0
 11
482.2520000414981
 21
368.0041112177614
 31
0.0
  0
LINE
  5
2F27
330
2F24
100
AcDbEntity
  8
2寸法線
 62
     0
440
 16777216
370
    -2
100
AcDbLine
 10
414.252000041498
 20
348.8448500646617
 30
0.0
 11
414.252000041498
 21
368.0041112177614
 31
0.0
  0
LINE
  5
2F28
330
2F24
100
AcDbEntity
  8
2寸法線
 62
     0
440
 16777216
370
    -2
100
AcDbLine
 10
479.7520000414981
 20
366.7541112177614
 30
0.0
 11
416.752000041498
 21
366.7541112177614
 31
0.0
  0
SOLID
  5
2F29
330
2F24
100
AcDbEntity
  8
2寸法線
 62
     0
440
 16777216
100
AcDbTrace
 10
479.7520000414981
 20
367.1707778844281
 30
0.0
 11
479.7520000414981
 21
366.3374445510947
 31
0.0
 12
482.2520000414981
 22
366.7541112177614
 32
0.0
 13
482.2520000414981
 23
366.7541112177614
 33
0.0
  0
SOLID
  5
2F2A
330
2F24
100
AcDbEntity
  8
2寸法線
 62
     0
440
 16777216
100
AcDbTrace
 10
416.752000041498
 20
367.1707778844281
 30
0.0
 11
416.752000041498
 21
366.3374445510947
 31
0.0
 12
414.252000041498
 22
366.7541112177614
 32
0.0
 13
414.252000041498
 23
366.7541112177614
 33
0.0
  0
MTEXT
  5
2F2B
330
2F24
100
AcDbEntity
  8
2寸法線
 62
     0
440
 16777216
100
AcDbMText
 10
448.252000041498
 20
371.3791112177614
 30
0.0
 40
8.0
 41
0.0
 46
0.0
 71
     5
 72
     1
  1
\A1;68
 73
     1
 44
1.0
  0
POINT
  5
2F2C
330
2F24
100
AcDbEntity
  8
DEFPOINTS
 62
     0
440
 16777216
100
AcDbPoint
 10
482.2520000414981
 20
348.2198500646617
 30
0.0
  0
POINT
  5
2F2D
330
2F24
100
AcDbEntity
  8
DEFPOINTS
 62
     0
440
 16777216
100
AcDbPoint
 10
414.252000041498
 20
348.2198500646617
 30
0.0
  0
POINT
  5
2F2E
330
2F24
100
AcDbEntity
  8
DEFPOINTS
 62
     0
440
 16777216
100
AcDbPoint
 10
414.252000041498
 20
366.7541112177614
 30
0.0
  0
ENDBLK
  5
2F2F
330
2F24
100
AcDbEntity
  8
0
100
AcDbBlockEnd
  0
BLOCK
  5
2F31
330
2F30
100
AcDbEntity
  8
0
100
AcDbBlockBegin
  2
*D61
 70
     1
 10
0.0
 20
0.0
 30
0.0
  3
*D61
  1

  0
LINE
  5
2F32
330
2F30
100
AcDbEntity
  8
2寸法線
 62
     0
440
 16777216
370
    -2
100
AcDbLine
 10
498.3066468184947
 20
158.22014204273
 30
0.0
 11
498.3066468184947
 21
177.3794031958297
 31
0.0
  0
LINE
  5
2F33
330
2F30
100
AcDbEntity
  8
2寸法線
 62
     0
440
 16777216
370
    -2
100
AcDbLine
 10
425.3066468184944
 20
158.22014204273
 30
0.0
 11
425.3066468184944
 21
177.3794031958297
 31
0.0
  0
LINE
  5
2F34
330
2F30
100
AcDbEntity
  8
2寸法線
 62
     0
440
 16777216
370
    -2
100
AcDbLine
 10
495.8066468184947
 20
176.1294031958297
 30
0.0
 11
427.8066468184944
 21
176.1294031958297
 31
0.0
  0
SOLID
  5
2F35
330
2F30
100
AcDbEntity
  8
2寸法線
 62
     0
440
 16777216
100
AcDbTrace
 10
495.8066468184947
 20
176.5460698624963
 30
0.0
 11
495.8066468184947
 21
175.712736529163
 31
0.0
 12
498.3066468184947
 22
176.1294031958297
 32
0.0
 13
498.3066468184947
 23
176.1294031958297
 33
0.0
  0
SOLID
  5
2F36
330
2F30
100
AcDbEntity
  8
2寸法線
 62
     0
440
 16777216
100
AcDbTrace
 10
427.8066468184944
 20
176.5460698624963
 30
0.0
 11
427.8066468184944
 21
175.712736529163
 31
0.0
 12
425.3066468184944
 22
176.1294031958297
 32
0.0
 13
425.3066468184944
 23
176.1294031958297
 33
0.0
  0
MTEXT
  5
2F37
330
2F30
100
AcDbEntity
  8
2寸法線
 62
     0
440
 16777216
100
AcDbMText
 10
461.8066468184946
 20
180.7544031958297
 30
0.0
 40
8.0
 41
0.0
 46
0.0
 71
     5
 72
     1
  1
\A1;73
 73
     1
 44
1.0
  0
POINT
  5
2F38
330
2F30
100
AcDbEntity
  8
DEFPOINTS
 62
     0
440
 16777216
100
AcDbPoint
 10
498.3066468184947
 20
157.59514204273
 30
0.0
  0
POINT
  5
2F39
330
2F30
100
AcDbEntity
  8
DEFPOINTS
 62
     0
440
 16777216
100
AcDbPoint
 10
425.3066468184944
 20
157.59514204273
 30
0.0
  0
POINT
  5
2F3A
330
2F30
100
AcDbEntity
  8
DEFPOINTS
 62
     0
440
 16777216
100
AcDbPoint
 10
425.3066468184944
 20
176.1294031958297
 30
0.0
  0
ENDBLK
  5
2F3B
330
2F30
100
AcDbEntity
  8
0
100
AcDbBlockEnd
  0
BLOCK
  5
2F3D
330
2F3C
100
AcDbEntity
  8
0
100
AcDbBlockBegin
  2
*D62
 70
     1
 10
0.0
 20
0.0
 30
0.0
  3
*D62
  1

  0
LINE
  5
2F3E
330
2F3C
100
AcDbEntity
  8
2寸法線
 62
     0
440
 16777216
370
    -2
100
AcDbLine
 10
498.3066468184947
 20
62.97014204273011
 30
0.0
 11
498.3066468184947
 21
47.38093893961681
 31
0.0
  0
LINE
  5
2F3F
330
2F3C
100
AcDbEntity
  8
2寸法線
 62
     0
440
 16777216
370
    -2
100
AcDbLine
 10
404.3066468184947
 20
62.97014204273011
 30
0.0
 11
404.3066468184947
 21
47.38093893961681
 31
0.0
  0
LINE
  5
2F40
330
2F3C
100
AcDbEntity
  8
2寸法線
 62
     0
440
 16777216
370
    -2
100
AcDbLine
 10
495.8066468184947
 20
48.63093893961682
 30
0.0
 11
406.8066468184947
 21
48.63093893961682
 31
0.0
  0
SOLID
  5
2F41
330
2F3C
100
AcDbEntity
  8
2寸法線
 62
     0
440
 16777216
100
AcDbTrace
 10
495.8066468184947
 20
49.04760560628348
 30
0.0
 11
495.8066468184947
 21
48.21427227295015
 31
0.0
 12
498.3066468184947
 22
48.63093893961682
 32
0.0
 13
498.3066468184947
 23
48.63093893961682
 33
0.0
  0
SOLID
  5
2F42
330
2F3C
100
AcDbEntity
  8
2寸法線
 62
     0
440
 16777216
100
AcDbTrace
 10
406.8066468184947
 20
49.04760560628348
 30
0.0
 11
406.8066468184947
 21
48.21427227295015
 31
0.0
 12
404.3066468184947
 22
48.63093893961682
 32
0.0
 13
404.3066468184947
 23
48.63093893961682
 33
0.0
  0
MTEXT
  5
2F43
330
2F3C
100
AcDbEntity
  8
2寸法線
 62
     0
440
 16777216
100
AcDbMText
 10
451.3066468184947
 20
53.25593893961682
 30
0.0
 40
8.0
 41
0.0
 46
0.0
 71
     5
 72
     1
  1
\A1;94
 73
     1
 44
1.0
  0
POINT
  5
2F44
330
2F3C
100
AcDbEntity
  8
DEFPOINTS
 62
     0
440
 16777216
100
AcDbPoint
 10
498.3066468184947
 20
63.59514204273011
 30
0.0
  0
POINT
  5
2F45
330
2F3C
100
AcDbEntity
  8
DEFPOINTS
 62
     0
440
 16777216
100
AcDbPoint
 10
404.3066468184947
 20
63.59514204273011
 30
0.0
  0
POINT
  5
2F46
330
2F3C
100
AcDbEntity
  8
DEFPOINTS
 62
     0
440
 16777216
100
AcDbPoint
 10
404.3066468184947
 20
48.63093893961682
 30
0.0
  0
ENDBLK
  5
2F47
330
2F3C
100
AcDbEntity
  8
0
100
AcDbBlockEnd
  0
BLOCK
  5
2F49
330
2F48
100
AcDbEntity
  8
0
100
AcDbBlockBegin
  2
*D63
 70
     1
 10
0.0
 20
0.0
 30
0.0
  3
*D63
  1

  0
LINE
  5
2F4A
330
2F48
100
AcDbEntity
  8
2寸法線
 62
     0
440
 16777216
370
    -2
100
AcDbLine
 10
482.2520000414981
 20
257.5948500646616
 30
0.0
 11
482.2520000414981
 21
241.3806469615483
 31
0.0
  0
LINE
  5
2F4B
330
2F48
100
AcDbEntity
  8
2寸法線
 62
     0
440
 16777216
370
    -2
100
AcDbLine
 10
390.2520000414981
 20
257.5948500646616
 30
0.0
 11
390.2520000414981
 21
241.3806469615483
 31
0.0
  0
LINE
  5
2F4C
330
2F48
100
AcDbEntity
  8
2寸法線
 62
     0
440
 16777216
370
    -2
100
AcDbLine
 10
479.7520000414981
 20
242.6306469615483
 30
0.0
 11
392.7520000414982
 21
242.6306469615483
 31
0.0
  0
SOLID
  5
2F4D
330
2F48
100
AcDbEntity
  8
2寸法線
 62
     0
440
 16777216
100
AcDbTrace
 10
479.7520000414981
 20
243.047313628215
 30
0.0
 11
479.7520000414981
 21
242.2139802948817
 31
0.0
 12
482.2520000414981
 22
242.6306469615483
 32
0.0
 13
482.2520000414981
 23
242.6306469615483
 33
0.0
  0
SOLID
  5
2F4E
330
2F48
100
AcDbEntity
  8
2寸法線
 62
     0
440
 16777216
100
AcDbTrace
 10
392.7520000414982
 20
243.047313628215
 30
0.0
 11
392.7520000414982
 21
242.2139802948817
 31
0.0
 12
390.2520000414981
 22
242.6306469615483
 32
0.0
 13
390.2520000414981
 23
242.6306469615483
 33
0.0
  0
MTEXT
  5
2F4F
330
2F48
100
AcDbEntity
  8
2寸法線
 62
     0
440
 16777216
100
AcDbMText
 10
436.2520000414981
 20
247.2556469615483
 30
0.0
 40
8.0
 41
0.0
 46
0.0
 71
     5
 72
     1
  1
\A1;92
 73
     1
 44
1.0
  0
POINT
  5
2F50
330
2F48
100
AcDbEntity
  8
DEFPOINTS
 62
     0
440
 16777216
100
AcDbPoint
 10
482.2520000414981
 20
258.2198500646616
 30
0.0
  0
POINT
  5
2F51
330
2F48
100
AcDbEntity
  8
DEFPOINTS
 62
     0
440
 16777216
100
AcDbPoint
 10
390.2520000414981
 20
258.2198500646616
 30
0.0
  0
POINT
  5
2F52
330
2F48
100
AcDbEntity
  8
DEFPOINTS
 62
     0
440
 16777216
100
AcDbPoint
 10
390.2520000414981
 20
242.6306469615483
 30
0.0
  0
ENDBLK
  5
2F53
330
2F48
100
AcDbEntity
  8
0
100
AcDbBlockEnd
  0
BLOCK
  5
300D
330
300C
100
AcDbEntity
  8
0
100
AcDbBlockBegin
  2
*D65
 70
     1
 10
0.0
 20
0.0
 30
0.0
  3
*D65
  1

  0
LINE
  5
306C
330
300C
100
AcDbEntity
  8
2寸法線
 62
     0
440
 16777216
370
    -2
100
AcDbLine
 10
-1879.413064939869
 20
-180.9086931760871
 30
0.0
 11
-1905.531660679608
 21
-180.9086931760871
 31
0.0
  0
LINE
  5
306D
330
300C
100
AcDbEntity
  8
2寸法線
 62
     0
440
 16777216
370
    -2
100
AcDbLine
 10
-1873.984132751735
 20
-248.9086931760871
 30
0.0
 11
-1905.531660679608
 21
-248.9086931760871
 31
0.0
  0
LINE
  5
306E
330
300C
100
AcDbEntity
  8
2寸法線
 62
     0
440
 16777216
370
    -2
100
AcDbLine
 10
-1904.281660679609
 20
-183.4086931760872
 30
0.0
 11
-1904.281660679609
 21
-246.4086931760871
 31
0.0
  0
SOLID
  5
306F
330
300C
100
AcDbEntity
  8
2寸法線
 62
     0
440
 16777216
100
AcDbTrace
 10
-1904.698327346275
 20
-183.4086931760872
 30
0.0
 11
-1903.864994012942
 21
-183.4086931760872
 31
0.0
 12
-1904.281660679609
 22
-180.9086931760871
 32
0.0
 13
-1904.281660679609
 23
-180.9086931760871
 33
0.0
  0
SOLID
  5
3070
330
300C
100
AcDbEntity
  8
2寸法線
 62
     0
440
 16777216
100
AcDbTrace
 10
-1904.698327346275
 20
-246.4086931760871
 30
0.0
 11
-1903.864994012942
 21
-246.4086931760871
 31
0.0
 12
-1904.281660679609
 22
-248.9086931760871
 32
0.0
 13
-1904.281660679609
 23
-248.9086931760871
 33
0.0
  0
MTEXT
  5
3071
330
300C
100
AcDbEntity
  8
2寸法線
 62
     0
440
 16777216
100
AcDbMText
 10
-1908.906660679608
 20
-214.9086931760875
 30
0.0
 40
8.0
 41
0.0
 46
0.0
 71
     5
 72
     1
  1
68
 11
0.0000000000000001
 21
1.0
 31
0.0
 73
     1
 44
1.0
  0
POINT
  5
3072
330
300C
100
AcDbEntity
  8
DEFPOINTS
 62
     0
440
 16777216
100
AcDbPoint
 10
-1878.788064939869
 20
-180.9086931760871
 30
0.0
  0
POINT
  5
3073
330
300C
100
AcDbEntity
  8
DEFPOINTS
 62
     0
440
 16777216
100
AcDbPoint
 10
-1873.359132751735
 20
-248.9086931760871
 30
0.0
  0
POINT
  5
3074
330
300C
100
AcDbEntity
  8
DEFPOINTS
 62
     0
440
 16777216
100
AcDbPoint
 10
-1904.281660679609
 20
-248.9086931760871
 30
0.0
  0
ENDBLK
  5
300E
330
300C
100
AcDbEntity
  8
0
100
AcDbBlockEnd
  0
BLOCK
  5
3019
330
3018
100
AcDbEntity
  8
0
100
AcDbBlockBegin
  2
*D66
 70
     1
 10
0.0
 20
0.0
 30
0.0
  3
*D66
  1

  0
LINE
  5
3075
330
3018
100
AcDbEntity
  8
2寸法線
 62
     0
440
 16777216
370
    -2
100
AcDbLine
 10
-1687.817283964193
 20
-158.908693176087
 30
0.0
 11
-1669.328758871893
 21
-158.908693176087
 31
0.0
  0
LINE
  5
3076
330
3018
100
AcDbEntity
  8
2寸法線
 62
     0
440
 16777216
370
    -2
100
AcDbLine
 10
-1687.817283964193
 20
-248.9086931760871
 30
0.0
 11
-1669.328758871893
 21
-248.9086931760871
 31
0.0
  0
LINE
  5
3077
330
3018
100
AcDbEntity
  8
2寸法線
 62
     0
440
 16777216
370
    -2
100
AcDbLine
 10
-1670.578758871894
 20
-161.408693176087
 30
0.0
 11
-1670.578758871894
 21
-246.4086931760871
 31
0.0
  0
SOLID
  5
3078
330
3018
100
AcDbEntity
  8
2寸法線
 62
     0
440
 16777216
100
AcDbTrace
 10
-1670.99542553856
 20
-161.408693176087
 30
0.0
 11
-1670.162092205227
 21
-161.408693176087
 31
0.0
 12
-1670.578758871894
 22
-158.908693176087
 32
0.0
 13
-1670.578758871894
 23
-158.908693176087
 33
0.0
  0
SOLID
  5
3079
330
3018
100
AcDbEntity
  8
2寸法線
 62
     0
440
 16777216
100
AcDbTrace
 10
-1670.99542553856
 20
-246.4086931760871
 30
0.0
 11
-1670.162092205227
 21
-246.4086931760871
 31
0.0
 12
-1670.578758871894
 22
-248.9086931760871
 32
0.0
 13
-1670.578758871894
 23
-248.9086931760871
 33
0.0
  0
MTEXT
  5
307A
330
3018
100
AcDbEntity
  8
2寸法線
 62
     0
440
 16777216
100
AcDbMText
 10
-1675.203758871893
 20
-203.9086931760873
 30
0.0
 40
8.0
 41
0.0
 46
0.0
 71
     5
 72
     1
  1
90
 11
0.0000000000000001
 21
1.0
 31
0.0
 73
     1
 44
1.0
  0
POINT
  5
307B
330
3018
100
AcDbEntity
  8
DEFPOINTS
 62
     0
440
 16777216
100
AcDbPoint
 10
-1688.442283964193
 20
-158.908693176087
 30
0.0
  0
POINT
  5
307C
330
3018
100
AcDbEntity
  8
DEFPOINTS
 62
     0
440
 16777216
100
AcDbPoint
 10
-1688.442283964193
 20
-248.9086931760871
 30
0.0
  0
POINT
  5
307D
330
3018
100
AcDbEntity
  8
DEFPOINTS
 62
     0
440
 16777216
100
AcDbPoint
 10
-1670.578758871894
 20
-248.9086931760871
 30
0.0
  0
ENDBLK
  5
301A
330
3018
100
AcDbEntity
  8
0
100
AcDbBlockEnd
  0
BLOCK
  5
3025
330
3024
100
AcDbEntity
  8
0
100
AcDbBlockBegin
  2
*D67
 70
     1
 10
0.0
 20
0.0
 30
0.0
  3
*D67
  1

  0
LINE
  5
307E
330
3024
100
AcDbEntity
  8
2寸法線
 62
     0
440
 16777216
370
    -2
100
AcDbLine
 10
-1874.469648082494
 20
-370.5334011980185
 30
0.0
 11
-1910.145547389057
 21
-370.5334011980185
 31
0.0
  0
LINE
  5
307F
330
3024
100
AcDbEntity
  8
2寸法線
 62
     0
440
 16777216
370
    -2
100
AcDbLine
 10
-1894.04071589436
 20
-443.5334011980186
 30
0.0
 11
-1910.145547389057
 21
-443.5334011980186
 31
0.0
  0
LINE
  5
3080
330
3024
100
AcDbEntity
  8
2寸法線
 62
     0
440
 16777216
370
    -2
100
AcDbLine
 10
-1908.895547389057
 20
-373.0334011980185
 30
0.0
 11
-1908.895547389057
 21
-441.0334011980187
 31
0.0
  0
SOLID
  5
3081
330
3024
100
AcDbEntity
  8
2寸法線
 62
     0
440
 16777216
100
AcDbTrace
 10
-1909.312214055724
 20
-373.0334011980185
 30
0.0
 11
-1908.47888072239
 21
-373.0334011980185
 31
0.0
 12
-1908.895547389057
 22
-370.5334011980185
 32
0.0
 13
-1908.895547389057
 23
-370.5334011980185
 33
0.0
  0
SOLID
  5
3082
330
3024
100
AcDbEntity
  8
2寸法線
 62
     0
440
 16777216
100
AcDbTrace
 10
-1909.312214055724
 20
-441.0334011980187
 30
0.0
 11
-1908.47888072239
 21
-441.0334011980187
 31
0.0
 12
-1908.895547389057
 22
-443.5334011980186
 32
0.0
 13
-1908.895547389057
 23
-443.5334011980186
 33
0.0
  0
MTEXT
  5
3083
330
3024
100
AcDbEntity
  8
2寸法線
 62
     0
440
 16777216
100
AcDbMText
 10
-1913.520547389057
 20
-407.0334011980188
 30
0.0
 40
8.0
 41
0.0
 46
0.0
 71
     5
 72
     1
  1
73
 11
0.0000000000000001
 21
1.0
 31
0.0
 73
     1
 44
1.0
  0
POINT
  5
3084
330
3024
100
AcDbEntity
  8
DEFPOINTS
 62
     0
440
 16777216
100
AcDbPoint
 10
-1873.844648082494
 20
-370.5334011980185
 30
0.0
  0
POINT
  5
3085
330
3024
100
AcDbEntity
  8
DEFPOINTS
 62
     0
440
 16777216
100
AcDbPoint
 10
-1893.41571589436
 20
-443.5334011980186
 30
0.0
  0
POINT
  5
3086
330
3024
100
AcDbEntity
  8
DEFPOINTS
 62
     0
440
 16777216
100
AcDbPoint
 10
-1908.895547389057
 20
-443.5334011980186
 30
0.0
  0
ENDBLK
  5
3026
330
3024
100
AcDbEntity
  8
0
100
AcDbBlockEnd
  0
BLOCK
  5
3031
330
3030
100
AcDbEntity
  8
0
100
AcDbBlockBegin
  2
*D68
 70
     1
 10
0.0
 20
0.0
 30
0.0
  3
*D68
  1

  0
LINE
  5
3087
330
3030
100
AcDbEntity
  8
2寸法線
 62
     0
440
 16777216
370
    -2
100
AcDbLine
 10
-1671.762637187196
 20
-349.5334011980187
 30
0.0
 11
-1657.659348730768
 21
-349.5334011980188
 31
0.0
  0
LINE
  5
3088
330
3030
100
AcDbEntity
  8
2寸法線
 62
     0
440
 16777216
370
    -2
100
AcDbLine
 10
-1671.762637187196
 20
-443.5334011980186
 30
0.0
 11
-1657.659348730768
 21
-443.5334011980186
 31
0.0
  0
LINE
  5
3089
330
3030
100
AcDbEntity
  8
2寸法線
 62
     0
440
 16777216
370
    -2
100
AcDbLine
 10
-1658.909348730768
 20
-352.0334011980188
 30
0.0
 11
-1658.909348730768
 21
-441.0334011980187
 31
0.0
  0
SOLID
  5
308A
330
3030
100
AcDbEntity
  8
2寸法線
 62
     0
440
 16777216
100
AcDbTrace
 10
-1659.326015397435
 20
-352.0334011980188
 30
0.0
 11
-1658.492682064102
 21
-352.0334011980188
 31
0.0
 12
-1658.909348730768
 22
-349.5334011980188
 32
0.0
 13
-1658.909348730768
 23
-349.5334011980188
 33
0.0
  0
SOLID
  5
308B
330
3030
100
AcDbEntity
  8
2寸法線
 62
     0
440
 16777216
100
AcDbTrace
 10
-1659.326015397435
 20
-441.0334011980187
 30
0.0
 11
-1658.492682064102
 21
-441.0334011980187
 31
0.0
 12
-1658.909348730768
 22
-443.5334011980186
 32
0.0
 13
-1658.909348730768
 23
-443.5334011980186
 33
0.0
  0
MTEXT
  5
308C
330
3030
100
AcDbEntity
  8
2寸法線
 62
     0
440
 16777216
100
AcDbMText
 10
-1663.534348730768
 20
-396.5334011980189
 30
0.0
 40
8.0
 41
0.0
 46
0.0
 71
     5
 72
     1
  1
94
 11
0.0000000000000001
 21
1.0
 31
0.0
 73
     1
 44
1.0
  0
POINT
  5
308D
330
3030
100
AcDbEntity
  8
DEFPOINTS
 62
     0
440
 16777216
100
AcDbPoint
 10
-1672.387637187197
 20
-349.5334011980187
 30
0.0
  0
POINT
  5
308E
330
3030
100
AcDbEntity
  8
DEFPOINTS
 62
     0
440
 16777216
100
AcDbPoint
 10
-1672.387637187197
 20
-443.5334011980186
 30
0.0
  0
POINT
  5
308F
330
3030
100
AcDbEntity
  8
DEFPOINTS
 62
     0
440
 16777216
100
AcDbPoint
 10
-1658.909348730768
 20
-443.5334011980186
 30
0.0
  0
ENDBLK
  5
3032
330
3030
100
AcDbEntity
  8
0
100
AcDbBlockEnd
  0
BLOCK
  5
303D
330
303C
100
AcDbEntity
  8
0
100
AcDbBlockBegin
  2
*D69
 70
     1
 10
0.0
 20
0.0
 30
0.0
  3
*D69
  1

  0
LINE
  5
3090
330
303C
100
AcDbEntity
  8
2寸法線
 62
     0
440
 16777216
370
    -2
100
AcDbLine
 10
-1688.442283964193
 20
-158.283693176087
 30
0.0
 11
-1688.442283964193
 21
-139.1244320229873
 31
0.0
  0
LINE
  5
3091
330
303C
100
AcDbEntity
  8
2寸法線
 62
     0
440
 16777216
370
    -2
100
AcDbLine
 10
-1756.442283964193
 20
-158.283693176087
 30
0.0
 11
-1756.442283964193
 21
-139.1244320229873
 31
0.0
  0
LINE
  5
3092
330
303C
100
AcDbEntity
  8
2寸法線
 62
     0
440
 16777216
370
    -2
100
AcDbLine
 10
-1690.942283964193
 20
-140.3744320229873
 30
0.0
 11
-1753.942283964193
 21
-140.3744320229873
 31
0.0
  0
SOLID
  5
3093
330
303C
100
AcDbEntity
  8
2寸法線
 62
     0
440
 16777216
100
AcDbTrace
 10
-1690.942283964193
 20
-139.9577653563206
 30
0.0
 11
-1690.942283964193
 21
-140.7910986896539
 31
0.0
 12
-1688.442283964193
 22
-140.3744320229873
 32
0.0
 13
-1688.442283964193
 23
-140.3744320229873
 33
0.0
  0
SOLID
  5
3094
330
303C
100
AcDbEntity
  8
2寸法線
 62
     0
440
 16777216
100
AcDbTrace
 10
-1753.942283964193
 20
-139.9577653563206
 30
0.0
 11
-1753.942283964193
 21
-140.7910986896539
 31
0.0
 12
-1756.442283964193
 22
-140.3744320229873
 32
0.0
 13
-1756.442283964193
 23
-140.3744320229873
 33
0.0
  0
MTEXT
  5
3095
330
303C
100
AcDbEntity
  8
2寸法線
 62
     0
440
 16777216
100
AcDbMText
 10
-1722.442283964193
 20
-135.7494320229873
 30
0.0
 40
8.0
 41
0.0
 46
0.0
 71
     5
 72
     1
  1
68
 73
     1
 44
1.0
  0
POINT
  5
3096
330
303C
100
AcDbEntity
  8
DEFPOINTS
 62
     0
440
 16777216
100
AcDbPoint
 10
-1688.442283964193
 20
-158.908693176087
 30
0.0
  0
POINT
  5
3097
330
303C
100
AcDbEntity
  8
DEFPOINTS
 62
     0
440
 16777216
100
AcDbPoint
 10
-1756.442283964193
 20
-158.908693176087
 30
0.0
  0
POINT
  5
3098
330
303C
100
AcDbEntity
  8
DEFPOINTS
 62
     0
440
 16777216
100
AcDbPoint
 10
-1756.442283964193
 20
-140.3744320229873
 30
0.0
  0
ENDBLK
  5
303E
330
303C
100
AcDbEntity
  8
0
100
AcDbBlockEnd
  0
BLOCK
  5
3049
330
3048
100
AcDbEntity
  8
0
100
AcDbBlockBegin
  2
*D70
 70
     1
 10
0.0
 20
0.0
 30
0.0
  3
*D70
  1

  0
LINE
  5
3099
330
3048
100
AcDbEntity
  8
2寸法線
 62
     0
440
 16777216
370
    -2
100
AcDbLine
 10
-1672.387637187197
 20
-348.9084011980188
 30
0.0
 11
-1672.387637187197
 21
-329.7491400449191
 31
0.0
  0
LINE
  5
309A
330
3048
100
AcDbEntity
  8
2寸法線
 62
     0
440
 16777216
370
    -2
100
AcDbLine
 10
-1745.387637187197
 20
-348.9084011980188
 30
0.0
 11
-1745.387637187197
 21
-329.7491400449191
 31
0.0
  0
LINE
  5
309B
330
3048
100
AcDbEntity
  8
2寸法線
 62
     0
440
 16777216
370
    -2
100
AcDbLine
 10
-1674.887637187196
 20
-330.999140044919
 30
0.0
 11
-1742.887637187197
 21
-330.999140044919
 31
0.0
  0
SOLID
  5
309C
330
3048
100
AcDbEntity
  8
2寸法線
 62
     0
440
 16777216
100
AcDbTrace
 10
-1674.887637187196
 20
-330.5824733782523
 30
0.0
 11
-1674.887637187196
 21
-331.4158067115857
 31
0.0
 12
-1672.387637187197
 22
-330.999140044919
 32
0.0
 13
-1672.387637187197
 23
-330.999140044919
 33
0.0
  0
SOLID
  5
309D
330
3048
100
AcDbEntity
  8
2寸法線
 62
     0
440
 16777216
100
AcDbTrace
 10
-1742.887637187197
 20
-330.5824733782523
 30
0.0
 11
-1742.887637187197
 21
-331.4158067115857
 31
0.0
 12
-1745.387637187197
 22
-330.999140044919
 32
0.0
 13
-1745.387637187197
 23
-330.999140044919
 33
0.0
  0
MTEXT
  5
309E
330
3048
100
AcDbEntity
  8
2寸法線
 62
     0
440
 16777216
100
AcDbMText
 10
-1708.887637187196
 20
-326.3741400449191
 30
0.0
 40
8.0
 41
0.0
 46
0.0
 71
     5
 72
     1
  1
73
 73
     1
 44
1.0
  0
POINT
  5
309F
330
3048
100
AcDbEntity
  8
DEFPOINTS
 62
     0
440
 16777216
100
AcDbPoint
 10
-1672.387637187197
 20
-349.5334011980187
 30
0.0
  0
POINT
  5
30A0
330
3048
100
AcDbEntity
  8
DEFPOINTS
 62
     0
440
 16777216
100
AcDbPoint
 10
-1745.387637187197
 20
-349.5334011980187
 30
0.0
  0
POINT
  5
30A1
330
3048
100
AcDbEntity
  8
DEFPOINTS
 62
     0
440
 16777216
100
AcDbPoint
 10
-1745.387637187197
 20
-330.999140044919
 30
0.0
  0
ENDBLK
  5
304A
330
3048
100
AcDbEntity
  8
0
100
AcDbBlockEnd
  0
BLOCK
  5
3055
330
3054
100
AcDbEntity
  8
0
100
AcDbBlockBegin
  2
*D71
 70
     1
 10
0.0
 20
0.0
 30
0.0
  3
*D71
  1

  0
LINE
  5
30A2
330
3054
100
AcDbEntity
  8
2寸法線
 62
     0
440
 16777216
370
    -2
100
AcDbLine
 10
-1672.387637187197
 20
-444.1584011980186
 30
0.0
 11
-1672.387637187197
 21
-459.7476043011319
 31
0.0
  0
LINE
  5
30A3
330
3054
100
AcDbEntity
  8
2寸法線
 62
     0
440
 16777216
370
    -2
100
AcDbLine
 10
-1766.387637187196
 20
-444.1584011980186
 30
0.0
 11
-1766.387637187196
 21
-459.7476043011319
 31
0.0
  0
LINE
  5
30A4
330
3054
100
AcDbEntity
  8
2寸法線
 62
     0
440
 16777216
370
    -2
100
AcDbLine
 10
-1674.887637187196
 20
-458.4976043011319
 30
0.0
 11
-1763.887637187196
 21
-458.4976043011319
 31
0.0
  0
SOLID
  5
30A5
330
3054
100
AcDbEntity
  8
2寸法線
 62
     0
440
 16777216
100
AcDbTrace
 10
-1674.887637187196
 20
-458.0809376344652
 30
0.0
 11
-1674.887637187196
 21
-458.9142709677985
 31
0.0
 12
-1672.387637187197
 22
-458.4976043011319
 32
0.0
 13
-1672.387637187197
 23
-458.4976043011319
 33
0.0
  0
SOLID
  5
30A6
330
3054
100
AcDbEntity
  8
2寸法線
 62
     0
440
 16777216
100
AcDbTrace
 10
-1763.887637187196
 20
-458.0809376344652
 30
0.0
 11
-1763.887637187196
 21
-458.9142709677985
 31
0.0
 12
-1766.387637187196
 22
-458.4976043011319
 32
0.0
 13
-1766.387637187196
 23
-458.4976043011319
 33
0.0
  0
MTEXT
  5
30A7
330
3054
100
AcDbEntity
  8
2寸法線
 62
     0
440
 16777216
100
AcDbMText
 10
-1719.387637187196
 20
-453.8726043011319
 30
0.0
 40
8.0
 41
0.0
 46
0.0
 71
     5
 72
     1
  1
94
 73
     1
 44
1.0
  0
POINT
  5
30A8
330
3054
100
AcDbEntity
  8
DEFPOINTS
 62
     0
440
 16777216
100
AcDbPoint
 10
-1672.387637187197
 20
-443.5334011980186
 30
0.0
  0
POINT
  5
30A9
330
3054
100
AcDbEntity
  8
DEFPOINTS
 62
     0
440
 16777216
100
AcDbPoint
 10
-1766.387637187196
 20
-443.5334011980186
 30
0.0
  0
POINT
  5
30AA
330
3054
100
AcDbEntity
  8
DEFPOINTS
 62
     0
440
 16777216
100
AcDbPoint
 10
-1766.387637187196
 20
-458.4976043011319
 30
0.0
  0
ENDBLK
  5
3056
330
3054
100
AcDbEntity
  8
0
100
AcDbBlockEnd
  0
BLOCK
  5
3061
330
3060
100
AcDbEntity
  8
0
100
AcDbBlockBegin
  2
*D72
 70
     1
 10
0.0
 20
0.0
 30
0.0
  3
*D72
  1

  0
LINE
  5
30B4
330
3060
100
AcDbEntity
  8
2寸法線
 62
     0
440
 16777216
370
    -2
100
AcDbLine
 10
-1688.442283964193
 20
-249.5336931760871
 30
0.0
 11
-1688.442283964193
 21
-265.7478962792004
 31
0.0
  0
LINE
  5
30B5
330
3060
100
AcDbEntity
  8
2寸法線
 62
     0
440
 16777216
370
    -2
100
AcDbLine
 10
-1778.442283964193
 20
-249.5336931760871
 30
0.0
 11
-1778.442283964193
 21
-265.7478962792004
 31
0.0
  0
LINE
  5
30B6
330
3060
100
AcDbEntity
  8
2寸法線
 62
     0
440
 16777216
370
    -2
100
AcDbLine
 10
-1690.942283964193
 20
-264.4978962792004
 30
0.0
 11
-1775.942283964193
 21
-264.4978962792004
 31
0.0
  0
SOLID
  5
30B7
330
3060
100
AcDbEntity
  8
2寸法線
 62
     0
440
 16777216
100
AcDbTrace
 10
-1690.942283964193
 20
-264.0812296125337
 30
0.0
 11
-1690.942283964193
 21
-264.9145629458671
 31
0.0
 12
-1688.442283964193
 22
-264.4978962792004
 32
0.0
 13
-1688.442283964193
 23
-264.4978962792004
 33
0.0
  0
SOLID
  5
30B8
330
3060
100
AcDbEntity
  8
2寸法線
 62
     0
440
 16777216
100
AcDbTrace
 10
-1775.942283964193
 20
-264.0812296125337
 30
0.0
 11
-1775.942283964193
 21
-264.9145629458671
 31
0.0
 12
-1778.442283964193
 22
-264.4978962792004
 32
0.0
 13
-1778.442283964193
 23
-264.4978962792004
 33
0.0
  0
MTEXT
  5
30B9
330
3060
100
AcDbEntity
  8
2寸法線
 62
     0
440
 16777216
100
AcDbMText
 10
-1733.442283964193
 20
-259.8728962792004
 30
0.0
 40
8.0
 41
0.0
 46
0.0
 71
     5
 72
     1
  1
90
 73
     1
 44
1.0
  0
POINT
  5
30BA
330
3060
100
AcDbEntity
  8
DEFPOINTS
 62
     0
440
 16777216
100
AcDbPoint
 10
-1688.442283964193
 20
-248.9086931760871
 30
0.0
  0
POINT
  5
30BB
330
3060
100
AcDbEntity
  8
DEFPOINTS
 62
     0
440
 16777216
100
AcDbPoint
 10
-1778.442283964193
 20
-248.9086931760871
 30
0.0
  0
POINT
  5
30BC
330
3060
100
AcDbEntity
  8
DEFPOINTS
 62
     0
440
 16777216
100
AcDbPoint
 10
-1778.442283964193
 20
-264.4978962792004
 30
0.0
  0
ENDBLK
  5
3062
330
3060
100
AcDbEntity
  8
0
100
AcDbBlockEnd
  0
BLOCK
  5
30C0
330
30BF
100
AcDbEntity
  8
0
100
AcDbBlockBegin
  2
*U73
 70
     1
 10
0.0
 20
0.0
 30
0.0
  3
*U73
  1

  0
SOLID
  5
30C1
330
30BF
100
AcDbEntity
  8
0
  6
Continuous
 62
     0
100
AcDbTrace
 10
0.666666666665568
 20
0.0000000000000004
 30
0.0
 11
0.9999999999983517
 21
0.2679491924306774
 31
0.0
 12
0.0
 22
0.0
 32
0.0
 13
0.0
 23
0.0
 33
0.0
210
0.0
220
0.0
230
-1.0
  0
SOLID
  5
30C2
330
30BF
100
AcDbEntity
  8
0
  6
Continuous
 62
     0
100
AcDbTrace
 10
0.666666666665568
 20
0.0000000000000004
 30
0.0
 11
0.0
 21
0.0
 31
0.0
 12
0.9999999999983524
 22
-0.267949192430676
 32
0.0
 13
0.9999999999983524
 23
-0.267949192430676
 33
0.0
210
0.0
220
0.0
230
-1.0
  0
SOLID
  5
30C3
330
30BF
100
AcDbEntity
  8
0
  6
Continuous
 62
     0
100
AcDbTrace
 10
0.666666666665568
 20
0.0000000000000004
 30
0.0
 11
0.9999999999983524
 21
-0.267949192430676
 31
0.0
 12
0.9999999999983517
 22
0.2679491924306774
 32
0.0
 13
0.9999999999983517
 23
0.2679491924306774
 33
0.0
210
0.0
220
0.0
230
-1.0
  0
ENDBLK
  5
30C4
330
30BF
100
AcDbEntity
  8
0
100
AcDbBlockEnd
  0
BLOCK
  5
30C6
330
30C5
100
AcDbEntity
  8
0
100
AcDbBlockBegin
  2
*D74
 70
     1
 10
0.0
 20
0.0
 30
0.0
  3
*D74
  1

  0
LINE
  5
30C7
330
30C5
100
AcDbEntity
  8
2寸法線
 62
     0
440
 16777216
370
    -2
100
AcDbLine
 10
321.9387244479808
 20
-2779.443473094163
 30
0.0
 11
286.9146178806302
 21
-2779.443473094163
 31
0.0
  0
LINE
  5
30C8
330
30C5
100
AcDbEntity
  8
2寸法線
 62
     0
440
 16777216
370
    -2
100
AcDbLine
 10
345.9387244479797
 20
-2876.443473094163
 30
0.0
 11
286.9146178806302
 21
-2876.443473094163
 31
0.0
  0
LINE
  5
30C9
330
30C5
100
AcDbEntity
  8
2寸法線
 62
     0
440
 16777216
370
    -2
100
AcDbLine
 10
287.9146178806302
 20
-2781.243473094164
 30
0.0
 11
287.9146178806302
 21
-2874.643473094164
 31
0.0
  0
INSERT
  5
30CA
330
30C5
100
AcDbEntity
  8
2寸法線
 62
     0
440
 16777216
370
    -2
100
AcDbBlockReference
  2
2
 10
287.9146178806302
 20
-2779.443473094163
 30
0.0
 41
1.8
 42
1.8
 43
1.8
 50
90.0
  0
INSERT
  5
30CB
330
30C5
100
AcDbEntity
  8
2寸法線
 62
     0
440
 16777216
370
    -2
100
AcDbBlockReference
  2
2
 10
287.9146178806302
 20
-2876.443473094163
 30
0.0
 41
1.8
 42
1.8
 43
1.8
 50
270.0
  0
MTEXT
  5
30CC
330
30C5
100
AcDbEntity
  8
2寸法線
 62
     0
440
 16777216
100
AcDbMText
 10
283.4146178806307
 20
-2827.943473094164
 30
0.0
 40
8.0
 41
0.0
 46
0.0
 71
     5
 72
     1
  1
\A1;97
 11
0.0000000000000001
 21
1.0
 31
0.0
 73
     1
 44
1.0
  0
POINT
  5
30CD
330
30C5
100
AcDbEntity
  8
DEFPOINTS
 62
     0
440
 16777216
100
AcDbPoint
 10
322.9387244479808
 20
-2779.443473094163
 30
0.0
  0
POINT
  5
30CE
330
30C5
100
AcDbEntity
  8
DEFPOINTS
 62
     0
440
 16777216
100
AcDbPoint
 10
346.9387244479797
 20
-2876.443473094163
 30
0.0
  0
POINT
  5
30CF
330
30C5
100
AcDbEntity
  8
DEFPOINTS
 62
     0
440
 16777216
100
AcDbPoint
 10
287.9146178806302
 20
-2876.443473094163
 30
0.0
  0
ENDBLK
  5
30D0
330
30C5
100
AcDbEntity
  8
0
100
AcDbBlockEnd
  0
BLOCK
  5
30D2
330
30D1
100
AcDbEntity
  8
0
100
AcDbBlockBegin
  2
*D75
 70
     1
 10
0.0
 20
0.0
 30
0.0
  3
*D75
  1

  0
LINE
  5
30D3
330
30D1
100
AcDbEntity
  8
2寸法線
 62
     0
440
 16777216
370
    -2
100
AcDbLine
 10
181.1289766562943
 20
-2779.443473094163
 30
0.0
 11
132.4569708951842
 21
-2779.443473094163
 31
0.0
  0
LINE
  5
30D4
330
30D1
100
AcDbEntity
  8
2寸法線
 62
     0
440
 16777216
370
    -2
100
AcDbLine
 10
202.1289766562943
 20
-2876.443473094163
 30
0.0
 11
132.4569708951842
 21
-2876.443473094163
 31
0.0
  0
LINE
  5
30D5
330
30D1
100
AcDbEntity
  8
2寸法線
 62
     0
440
 16777216
370
    -2
100
AcDbLine
 10
133.4569708951842
 20
-2781.243473094164
 30
0.0
 11
133.4569708951842
 21
-2874.643473094164
 31
0.0
  0
INSERT
  5
30D6
330
30D1
100
AcDbEntity
  8
2寸法線
 62
     0
440
 16777216
370
    -2
100
AcDbBlockReference
  2
2
 10
133.4569708951842
 20
-2779.443473094163
 30
0.0
 41
1.8
 42
1.8
 43
1.8
 50
90.0
  0
INSERT
  5
30D7
330
30D1
100
AcDbEntity
  8
2寸法線
 62
     0
440
 16777216
370
    -2
100
AcDbBlockReference
  2
2
 10
133.4569708951842
 20
-2876.443473094163
 30
0.0
 41
1.8
 42
1.8
 43
1.8
 50
270.0
  0
MTEXT
  5
30D8
330
30D1
100
AcDbEntity
  8
2寸法線
 62
     0
440
 16777216
100
AcDbMText
 10
128.9569708951846
 20
-2827.943473094164
 30
0.0
 40
8.0
 41
0.0
 46
0.0
 71
     5
 72
     1
  1
\A1;97
 11
0.0000000000000001
 21
1.0
 31
0.0
 73
     1
 44
1.0
  0
POINT
  5
30D9
330
30D1
100
AcDbEntity
  8
DEFPOINTS
 62
     0
440
 16777216
100
AcDbPoint
 10
182.1289766562943
 20
-2779.443473094163
 30
0.0
  0
POINT
  5
30DA
330
30D1
100
AcDbEntity
  8
DEFPOINTS
 62
     0
440
 16777216
100
AcDbPoint
 10
203.1289766562943
 20
-2876.443473094163
 30
0.0
  0
POINT
  5
30DB
330
30D1
100
AcDbEntity
  8
DEFPOINTS
 62
     0
440
 16777216
100
AcDbPoint
 10
133.4569708951842
 20
-2876.443473094163
 30
0.0
  0
ENDBLK
  5
30DC
330
30D1
100
AcDbEntity
  8
0
100
AcDbBlockEnd
  0
BLOCK
  5
30DE
330
30DD
100
AcDbEntity
  8
0
100
AcDbBlockBegin
  2
*D76
 70
     1
 10
0.0
 20
0.0
 30
0.0
  3
*D76
  1

  0
LINE
  5
30DF
330
30DD
100
AcDbEntity
  8
2寸法線
 62
     0
440
 16777216
370
    -2
100
AcDbLine
 10
419.9387244479807
 20
-2877.443473094164
 30
0.0
 11
419.9387244479807
 21
-2919.585877327092
 31
0.0
  0
LINE
  5
30E0
330
30DD
100
AcDbEntity
  8
2寸法線
 62
     0
440
 16777216
370
    -2
100
AcDbLine
 10
322.9387244479808
 20
-2853.443473094163
 30
0.0
 11
322.9387244479808
 21
-2919.585877327092
 31
0.0
  0
LINE
  5
30E1
330
30DD
100
AcDbEntity
  8
2寸法線
 62
     0
440
 16777216
370
    -2
100
AcDbLine
 10
418.1387244479807
 20
-2918.585877327093
 30
0.0
 11
324.7387244479808
 21
-2918.585877327093
 31
0.0
  0
INSERT
  5
30E2
330
30DD
100
AcDbEntity
  8
2寸法線
 62
     0
440
 16777216
370
    -2
100
AcDbBlockReference
  2
2
 10
419.9387244479807
 20
-2918.585877327093
 30
0.0
 41
1.8
 42
1.8
 43
1.8
  0
INSERT
  5
30E3
330
30DD
100
AcDbEntity
  8
2寸法線
 62
     0
440
 16777216
370
    -2
100
AcDbBlockReference
  2
2
 10
322.9387244479808
 20
-2918.585877327093
 30
0.0
 41
1.8
 42
1.8
 43
1.8
 50
180.0
  0
MTEXT
  5
30E4
330
30DD
100
AcDbEntity
  8
2寸法線
 62
     0
440
 16777216
100
AcDbMText
 10
371.4387244479808
 20
-2914.085877327093
 30
0.0
 40
8.0
 41
0.0
 46
0.0
 71
     5
 72
     1
  1
\A1;97
 73
     1
 44
1.0
  0
POINT
  5
30E5
330
30DD
100
AcDbEntity
  8
DEFPOINTS
 62
     0
440
 16777216
100
AcDbPoint
 10
419.9387244479807
 20
-2876.443473094163
 30
0.0
  0
POINT
  5
30E6
330
30DD
100
AcDbEntity
  8
DEFPOINTS
 62
     0
440
 16777216
100
AcDbPoint
 10
322.9387244479808
 20
-2852.443473094164
 30
0.0
  0
POINT
  5
30E7
330
30DD
100
AcDbEntity
  8
DEFPOINTS
 62
     0
440
 16777216
100
AcDbPoint
 10
322.9387244479808
 20
-2918.585877327093
 30
0.0
  0
ENDBLK
  5
30E8
330
30DD
100
AcDbEntity
  8
0
100
AcDbBlockEnd
  0
BLOCK
  5
30EA
330
30E9
100
AcDbEntity
  8
0
100
AcDbBlockBegin
  2
*D77
 70
     1
 10
0.0
 20
0.0
 30
0.0
  3
*D77
  1

  0
LINE
  5
30EB
330
30E9
100
AcDbEntity
  8
2寸法線
 62
     0
440
 16777216
370
    -2
100
AcDbLine
 10
491.8528873931448
 20
-2876.443473094163
 30
0.0
 11
465.9056364445657
 21
-2876.443473094163
 31
0.0
  0
LINE
  5
30EC
330
30E9
100
AcDbEntity
  8
2寸法線
 62
     0
440
 16777216
370
    -2
100
AcDbLine
 10
517.8528873931448
 20
-2779.443473094163
 30
0.0
 11
465.9056364445657
 21
-2779.443473094163
 31
0.0
  0
LINE
  5
30ED
330
30E9
100
AcDbEntity
  8
2寸法線
 62
     0
440
 16777216
370
    -2
100
AcDbLine
 10
466.9056364445657
 20
-2874.643473094164
 30
0.0
 11
466.9056364445657
 21
-2781.243473094164
 31
0.0
  0
INSERT
  5
30EE
330
30E9
100
AcDbEntity
  8
2寸法線
 62
     0
440
 16777216
370
    -2
100
AcDbBlockReference
  2
2
 10
466.9056364445657
 20
-2876.443473094163
 30
0.0
 41
1.8
 42
1.8
 43
1.8
 50
270.0
  0
INSERT
  5
30EF
330
30E9
100
AcDbEntity
  8
2寸法線
 62
     0
440
 16777216
370
    -2
100
AcDbBlockReference
  2
2
 10
466.9056364445657
 20
-2779.443473094163
 30
0.0
 41
1.8
 42
1.8
 43
1.8
 50
90.0
  0
MTEXT
  5
30F0
330
30E9
100
AcDbEntity
  8
2寸法線
 62
     0
440
 16777216
100
AcDbMText
 10
462.4056364445662
 20
-2827.943473094164
 30
0.0
 40
8.0
 41
0.0
 46
0.0
 71
     5
 72
     1
  1
\A1;97
 11
0.0000000000000001
 21
1.0
 31
0.0
 73
     1
 44
1.0
  0
POINT
  5
30F1
330
30E9
100
AcDbEntity
  8
DEFPOINTS
 62
     0
440
 16777216
100
AcDbPoint
 10
492.8528873931448
 20
-2876.443473094163
 30
0.0
  0
POINT
  5
30F2
330
30E9
100
AcDbEntity
  8
DEFPOINTS
 62
     0
440
 16777216
100
AcDbPoint
 10
518.8528873931447
 20
-2779.443473094163
 30
0.0
  0
POINT
  5
30F3
330
30E9
100
AcDbEntity
  8
DEFPOINTS
 62
     0
440
 16777216
100
AcDbPoint
 10
466.9056364445657
 20
-2779.443473094163
 30
0.0
  0
ENDBLK
  5
30F4
330
30E9
100
AcDbEntity
  8
0
100
AcDbBlockEnd
  0
BLOCK
  5
3146
330
3145
100
AcDbEntity
  8
0
100
AcDbBlockBegin
  2
*D79
 70
     1
 10
0.0
 20
0.0
 30
0.0
  3
*D79
  1

  0
LINE
  5
3175
330
3145
100
AcDbEntity
  8
2寸法線
 62
     0
440
 16777216
370
    -2
100
AcDbLine
 10
-1733.459367149404
 20
-250.776280837074
 30
0.0
 11
-1768.483473716754
 21
-250.776280837074
 31
0.0
  0
LINE
  5
3176
330
3145
100
AcDbEntity
  8
2寸法線
 62
     0
440
 16777216
370
    -2
100
AcDbLine
 10
-1709.459367149404
 20
-347.7762808370739
 30
0.0
 11
-1768.483473716754
 21
-347.7762808370739
 31
0.0
  0
LINE
  5
3177
330
3145
100
AcDbEntity
  8
2寸法線
 62
     0
440
 16777216
370
    -2
100
AcDbLine
 10
-1767.483473716754
 20
-252.5762808370739
 30
0.0
 11
-1767.483473716754
 21
-345.976280837074
 31
0.0
  0
INSERT
  5
3178
330
3145
100
AcDbEntity
  8
2寸法線
 62
     0
440
 16777216
370
    -2
100
AcDbBlockReference
  2
2
 10
-1767.483473716754
 20
-250.776280837074
 30
0.0
 41
1.8
 42
1.8
 43
1.8
 50
90.0
  0
INSERT
  5
3179
330
3145
100
AcDbEntity
  8
2寸法線
 62
     0
440
 16777216
370
    -2
100
AcDbBlockReference
  2
2
 10
-1767.483473716754
 20
-347.7762808370739
 30
0.0
 41
1.8
 42
1.8
 43
1.8
 50
270.0
  0
MTEXT
  5
317A
330
3145
100
AcDbEntity
  8
2寸法線
 62
     0
440
 16777216
100
AcDbMText
 10
-1771.983473716754
 20
-299.2762808370742
 30
0.0
 40
8.0
 41
0.0
 46
0.0
 71
     5
 72
     1
  1
\A1;97
 11
0.0000000000000001
 21
1.0
 31
0.0
 73
     1
 44
1.0
  0
POINT
  5
317B
330
3145
100
AcDbEntity
  8
DEFPOINTS
 62
     0
440
 16777216
100
AcDbPoint
 10
-1732.459367149403
 20
-250.776280837074
 30
0.0
  0
POINT
  5
317C
330
3145
100
AcDbEntity
  8
DEFPOINTS
 62
     0
440
 16777216
100
AcDbPoint
 10
-1708.459367149405
 20
-347.7762808370739
 30
0.0
  0
POINT
  5
317D
330
3145
100
AcDbEntity
  8
DEFPOINTS
 62
     0
440
 16777216
100
AcDbPoint
 10
-1767.483473716754
 20
-347.7762808370739
 30
0.0
  0
ENDBLK
  5
3147
330
3145
100
AcDbEntity
  8
0
100
AcDbBlockEnd
  0
BLOCK
  5
3152
330
3151
100
AcDbEntity
  8
0
100
AcDbBlockBegin
  2
*D80
 70
     1
 10
0.0
 20
0.0
 30
0.0
  3
*D80
  1

  0
LINE
  5
317E
330
3151
100
AcDbEntity
  8
2寸法線
 62
     0
440
 16777216
370
    -2
100
AcDbLine
 10
-1874.26911494109
 20
-250.776280837074
 30
0.0
 11
-1922.9411207022
 21
-250.776280837074
 31
0.0
  0
LINE
  5
317F
330
3151
100
AcDbEntity
  8
2寸法線
 62
     0
440
 16777216
370
    -2
100
AcDbLine
 10
-1853.26911494109
 20
-347.7762808370739
 30
0.0
 11
-1922.9411207022
 21
-347.7762808370739
 31
0.0
  0
LINE
  5
3180
330
3151
100
AcDbEntity
  8
2寸法線
 62
     0
440
 16777216
370
    -2
100
AcDbLine
 10
-1921.9411207022
 20
-252.5762808370739
 30
0.0
 11
-1921.9411207022
 21
-345.9762808370739
 31
0.0
  0
INSERT
  5
3181
330
3151
100
AcDbEntity
  8
2寸法線
 62
     0
440
 16777216
370
    -2
100
AcDbBlockReference
  2
2
 10
-1921.9411207022
 20
-250.776280837074
 30
0.0
 41
1.8
 42
1.8
 43
1.8
 50
90.0
  0
INSERT
  5
3182
330
3151
100
AcDbEntity
  8
2寸法線
 62
     0
440
 16777216
370
    -2
100
AcDbBlockReference
  2
2
 10
-1921.9411207022
 20
-347.7762808370739
 30
0.0
 41
1.8
 42
1.8
 43
1.8
 50
270.0
  0
MTEXT
  5
3183
330
3151
100
AcDbEntity
  8
2寸法線
 62
     0
440
 16777216
100
AcDbMText
 10
-1926.4411207022
 20
-299.2762808370742
 30
0.0
 40
8.0
 41
0.0
 46
0.0
 71
     5
 72
     1
  1
\A1;97
 11
0.0000000000000001
 21
1.0
 31
0.0
 73
     1
 44
1.0
  0
POINT
  5
3184
330
3151
100
AcDbEntity
  8
DEFPOINTS
 62
     0
440
 16777216
100
AcDbPoint
 10
-1873.26911494109
 20
-250.776280837074
 30
0.0
  0
POINT
  5
3185
330
3151
100
AcDbEntity
  8
DEFPOINTS
 62
     0
440
 16777216
100
AcDbPoint
 10
-1852.26911494109
 20
-347.7762808370739
 30
0.0
  0
POINT
  5
3186
330
3151
100
AcDbEntity
  8
DEFPOINTS
 62
     0
440
 16777216
100
AcDbPoint
 10
-1921.9411207022
 20
-347.7762808370739
 30
0.0
  0
ENDBLK
  5
3153
330
3151
100
AcDbEntity
  8
0
100
AcDbBlockEnd
  0
BLOCK
  5
315E
330
315D
100
AcDbEntity
  8
0
100
AcDbBlockBegin
  2
*D81
 70
     1
 10
0.0
 20
0.0
 30
0.0
  3
*D81
  1

  0
LINE
  5
3187
330
315D
100
AcDbEntity
  8
2寸法線
 62
     0
440
 16777216
370
    -2
100
AcDbLine
 10
-1635.459367149404
 20
-348.776280837074
 30
0.0
 11
-1635.459367149404
 21
-390.918685070003
 31
0.0
  0
LINE
  5
3188
330
315D
100
AcDbEntity
  8
2寸法線
 62
     0
440
 16777216
370
    -2
100
AcDbLine
 10
-1732.459367149403
 20
-324.7762808370739
 30
0.0
 11
-1732.459367149403
 21
-390.918685070003
 31
0.0
  0
LINE
  5
3189
330
315D
100
AcDbEntity
  8
2寸法線
 62
     0
440
 16777216
370
    -2
100
AcDbLine
 10
-1637.259367149403
 20
-389.918685070003
 30
0.0
 11
-1730.659367149403
 21
-389.918685070003
 31
0.0
  0
INSERT
  5
318A
330
315D
100
AcDbEntity
  8
2寸法線
 62
     0
440
 16777216
370
    -2
100
AcDbBlockReference
  2
2
 10
-1635.459367149404
 20
-389.918685070003
 30
0.0
 41
1.8
 42
1.8
 43
1.8
  0
INSERT
  5
318B
330
315D
100
AcDbEntity
  8
2寸法線
 62
     0
440
 16777216
370
    -2
100
AcDbBlockReference
  2
2
 10
-1732.459367149403
 20
-389.918685070003
 30
0.0
 41
1.8
 42
1.8
 43
1.8
 50
180.0
  0
MTEXT
  5
318C
330
315D
100
AcDbEntity
  8
2寸法線
 62
     0
440
 16777216
100
AcDbMText
 10
-1683.959367149403
 20
-385.418685070003
 30
0.0
 40
8.0
 41
0.0
 46
0.0
 71
     5
 72
     1
  1
\A1;97
 73
     1
 44
1.0
  0
POINT
  5
318D
330
315D
100
AcDbEntity
  8
DEFPOINTS
 62
     0
440
 16777216
100
AcDbPoint
 10
-1635.459367149404
 20
-347.7762808370739
 30
0.0
  0
POINT
  5
318E
330
315D
100
AcDbEntity
  8
DEFPOINTS
 62
     0
440
 16777216
100
AcDbPoint
 10
-1732.459367149403
 20
-323.776280837074
 30
0.0
  0
POINT
  5
318F
330
315D
100
AcDbEntity
  8
DEFPOINTS
 62
     0
440
 16777216
100
AcDbPoint
 10
-1732.459367149403
 20
-389.918685070003
 30
0.0
  0
ENDBLK
  5
315F
330
315D
100
AcDbEntity
  8
0
100
AcDbBlockEnd
  0
BLOCK
  5
316A
330
3169
100
AcDbEntity
  8
0
100
AcDbBlockBegin
  2
*D82
 70
     1
 10
0.0
 20
0.0
 30
0.0
  3
*D82
  1

  0
LINE
  5
3190
330
3169
100
AcDbEntity
  8
2寸法線
 62
     0
440
 16777216
370
    -2
100
AcDbLine
 10
-1563.545204204239
 20
-347.7762808370739
 30
0.0
 11
-1589.492455152818
 21
-347.7762808370739
 31
0.0
  0
LINE
  5
3191
330
3169
100
AcDbEntity
  8
2寸法線
 62
     0
440
 16777216
370
    -2
100
AcDbLine
 10
-1537.545204204239
 20
-250.776280837074
 30
0.0
 11
-1589.492455152818
 21
-250.776280837074
 31
0.0
  0
LINE
  5
3192
330
3169
100
AcDbEntity
  8
2寸法線
 62
     0
440
 16777216
370
    -2
100
AcDbLine
 10
-1588.492455152819
 20
-345.976280837074
 30
0.0
 11
-1588.492455152819
 21
-252.5762808370739
 31
0.0
  0
INSERT
  5
3193
330
3169
100
AcDbEntity
  8
2寸法線
 62
     0
440
 16777216
370
    -2
100
AcDbBlockReference
  2
2
 10
-1588.492455152819
 20
-347.7762808370739
 30
0.0
 41
1.8
 42
1.8
 43
1.8
 50
270.0
  0
INSERT
  5
3194
330
3169
100
AcDbEntity
  8
2寸法線
 62
     0
440
 16777216
370
    -2
100
AcDbBlockReference
  2
2
 10
-1588.492455152819
 20
-250.776280837074
 30
0.0
 41
1.8
 42
1.8
 43
1.8
 50
90.0
  0
MTEXT
  5
3195
330
3169
100
AcDbEntity
  8
2寸法線
 62
     0
440
 16777216
100
AcDbMText
 10
-1592.992455152818
 20
-299.2762808370742
 30
0.0
 40
8.0
 41
0.0
 46
0.0
 71
     5
 72
     1
  1
\A1;97
 11
0.0000000000000001
 21
1.0
 31
0.0
 73
     1
 44
1.0
  0
POINT
  5
3196
330
3169
100
AcDbEntity
  8
DEFPOINTS
 62
     0
440
 16777216
100
AcDbPoint
 10
-1562.545204204239
 20
-347.7762808370739
 30
0.0
  0
POINT
  5
3197
330
3169
100
AcDbEntity
  8
DEFPOINTS
 62
     0
440
 16777216
100
AcDbPoint
 10
-1536.545204204239
 20
-250.776280837074
 30
0.0
  0
POINT
  5
3198
330
3169
100
AcDbEntity
  8
DEFPOINTS
 62
     0
440
 16777216
100
AcDbPoint
 10
-1588.492455152819
 20
-250.776280837074
 30
0.0
  0
ENDBLK
  5
316B
330
3169
100
AcDbEntity
  8
0
100
AcDbBlockEnd
  0
ENDSEC
  0
SECTION
  2
ENTITIES
  0
LINE
  5
311F
330
2E0
100
AcDbEntity
  8
1外形線
100
AcDbLine
 10
-1635.459367149404
 20
-347.7762808370739
 30
0.0
 11
-1635.459367149403
 21
-270.7762808370739
 31
0.0
  0
LINE
  5
3120
330
2E0
100
AcDbEntity
  8
1外形線
100
AcDbLine
 10
-1899.26911494109
 20
-347.7762808370739
 30
0.0
 11
-1852.26911494109
 21
-347.7762808370739
 31
0.0
  0
LINE
  5
3121
330
2E0
100
AcDbEntity
  8
1外形線
 62
     2
100
AcDbLine
 10
-1852.26911494109
 20
-362.5859706800698
 30
0.0
 11
-1852.26911494109
 21
-236.6489898038617
 31
0.0
  0
LINE
  5
3122
330
2E0
100
AcDbEntity
  8
1外形線
100
AcDbLine
 10
-1899.26911494109
 20
-347.7762808370739
 30
0.0
 11
-1899.26911494109
 21
-276.7762808370739
 31
0.0
  0
LINE
  5
3123
330
2E0
100
AcDbEntity
  8
1外形線
100
AcDbLine
 10
-1873.26911494109
 20
-250.776280837074
 30
0.0
 11
-1852.26911494109
 21
-250.776280837074
 31
0.0
  0
ARC
  5
3124
330
2E0
100
AcDbEntity
  8
1外形線
100
AcDbCircle
 10
-1873.26911494109
 20
-276.7762808370739
 30
0.0
 40
26.0
100
AcDbArc
 50
90.0
 51
180.0
  0
LINE
  5
3125
330
2E0
100
AcDbEntity
  8
1外形線
100
AcDbLine
 10
-1875.26911494109
 20
-323.776280837074
 30
0.0
 11
-1852.26911494109
 21
-323.776280837074
 31
0.0
  0
ARC
  5
3126
330
2E0
100
AcDbEntity
  8
1外形線
100
AcDbCircle
 10
-1875.26911494109
 20
-299.7762808370749
 30
0.0
 40
24.0
100
AcDbArc
 50
180.0
 51
270.0
  0
ARC
  5
3127
330
2E0
100
AcDbEntity
  8
1外形線
100
AcDbCircle
 10
-1831.26911494109
 20
-276.7762808370739
 30
0.0
 40
26.0
100
AcDbArc
 50
0.0
 51
90.0
  0
ARC
  5
3128
330
2E0
100
AcDbEntity
  8
1外形線
100
AcDbCircle
 10
-1829.26911494109
 20
-299.7762808370749
 30
0.0
 40
24.0
100
AcDbArc
 50
270.0
 51
0.0
  0
LINE
  5
3129
330
2E0
100
AcDbEntity
  8
1外形線
100
AcDbLine
 10
-1805.26911494109
 20
-347.7762808370739
 30
0.0
 11
-1852.26911494109
 21
-347.7762808370739
 31
0.0
  0
LINE
  5
312A
330
2E0
100
AcDbEntity
  8
1外形線
100
AcDbLine
 10
-1805.26911494109
 20
-347.7762808370739
 30
0.0
 11
-1805.26911494109
 21
-276.7762808370739
 31
0.0
  0
LINE
  5
312B
330
2E0
100
AcDbEntity
  8
1外形線
100
AcDbLine
 10
-1829.26911494109
 20
-323.776280837074
 30
0.0
 11
-1852.26911494109
 21
-323.776280837074
 31
0.0
  0
LINE
  5
312C
330
2E0
100
AcDbEntity
  8
1外形線
100
AcDbLine
 10
-1831.26911494109
 20
-250.776280837074
 30
0.0
 11
-1852.26911494109
 21
-250.776280837074
 31
0.0
  0
LINE
  5
312D
330
2E0
100
AcDbEntity
  8
1外形線
 62
     2
100
AcDbLine
 10
-1635.459367149402
 20
-250.7762808370717
 30
0.0
 11
-1735.694696434398
 21
-351.0116101220678
 31
0.0
  0
LINE
  5
312E
330
2E0
100
AcDbEntity
  8
1外形線
100
AcDbLine
 10
-1732.459367149403
 20
-250.776280837074
 30
0.0
 11
-1655.459367149403
 21
-250.776280837074
 31
0.0
  0
ARC
  5
312F
330
2E0
100
AcDbEntity
  8
1外形線
100
AcDbCircle
 10
-1655.459367149403
 20
-270.7762808370739
 30
0.0
 40
20.0
100
AcDbArc
 50
0.0
 51
90.0
  0
LINE
  5
3130
330
2E0
100
AcDbEntity
  8
1外形線
100
AcDbLine
 10
-1732.459367149403
 20
-323.776280837074
 30
0.0
 11
-1732.459367149403
 21
-250.776280837074
 31
0.0
  0
LINE
  5
3131
330
2E0
100
AcDbEntity
  8
1外形線
100
AcDbLine
 10
-1727.459367149403
 20
-276.7762808370749
 30
0.0
 11
-1727.459367149403
 21
-250.776280837074
 31
0.0
  0
LINE
  5
3132
330
2E0
100
AcDbEntity
  8
1外形線
100
AcDbLine
 10
-1732.459367149403
 20
-323.776280837074
 30
0.0
 11
-1710.459367149404
 21
-323.7762808370749
 31
0.0
  0
LINE
  5
3133
330
2E0
100
AcDbEntity
  8
1外形線
100
AcDbLine
 10
-1708.459367149405
 20
-347.7762808370739
 30
0.0
 11
-1708.459367149404
 21
-325.7762808370749
 31
0.0
  0
ARC
  5
3134
330
2E0
100
AcDbEntity
  8
1外形線
100
AcDbCircle
 10
-1710.459367149404
 20
-325.7762808370749
 30
0.0
 40
2.0
100
AcDbArc
 50
0.0
 51
90.0
  0
LINE
  5
3135
330
2E0
100
AcDbEntity
  8
1外形線
100
AcDbLine
 10
-1708.459367149389
 20
-347.7762808370858
 30
0.0
 11
-1635.459367149404
 21
-347.7762808370739
 31
0.0
  0
LINE
  5
3136
330
2E0
100
AcDbEntity
  8
1外形線
100
AcDbLine
 10
-1661.459367149389
 20
-342.7762808370776
 30
0.0
 11
-1635.459367149389
 21
-342.776280837074
 31
0.0
  0
LINE
  5
3137
330
2E0
100
AcDbEntity
  8
1外形線
100
AcDbLine
 10
-1562.545204204239
 20
-347.7762808370739
 30
0.0
 11
-1515.545204204239
 21
-347.7762808370739
 31
0.0
  0
LINE
  5
3138
330
2E0
100
AcDbEntity
  8
1外形線
100
AcDbLine
 10
-1536.545204204239
 20
-250.776280837074
 30
0.0
 11
-1515.545204204239
 21
-250.776280837074
 31
0.0
  0
LINE
  5
3139
330
2E0
100
AcDbEntity
  8
1外形線
 62
     2
100
AcDbLine
 10
-1515.545204204239
 20
-361.5859706800697
 30
0.0
 11
-1515.545204204239
 21
-236.6489898038617
 31
0.0
  0
ARC
  5
313A
330
2E0
100
AcDbEntity
  8
1外形線
100
AcDbCircle
 10
-1494.545204204239
 20
-276.7762808370739
 30
0.0
 40
26.0
100
AcDbArc
 50
0.0
 51
90.0
  0
LINE
  5
313B
330
2E0
100
AcDbEntity
  8
1外形線
100
AcDbLine
 10
-1468.545204204239
 20
-347.7762808370739
 30
0.0
 11
-1515.545204204239
 21
-347.7762808370739
 31
0.0
  0
LINE
  5
313C
330
2E0
100
AcDbEntity
  8
1外形線
100
AcDbLine
 10
-1468.545204204239
 20
-347.7762808370739
 30
0.0
 11
-1468.545204204239
 21
-276.7762808370739
 31
0.0
  0
LINE
  5
313D
330
2E0
100
AcDbEntity
  8
1外形線
100
AcDbLine
 10
-1494.545204204239
 20
-250.776280837074
 30
0.0
 11
-1515.545204204239
 21
-250.776280837074
 31
0.0
  0
ARC
  5
313E
330
2E0
100
AcDbEntity
  8
1外形線
100
AcDbCircle
 10
-1536.545204204239
 20
-276.7762808370739
 30
0.0
 40
26.0
100
AcDbArc
 50
90.0
 51
180.0
  0
LINE
  5
313F
330
2E0
100
AcDbEntity
  8
1外形線
100
AcDbLine
 10
-1562.545204204239
 20
-347.7762808370739
 30
0.0
 11
-1562.545204204239
 21
-276.7762808370739
 31
0.0
  0
LINE
  5
3140
330
2E0
100
AcDbEntity
  8
1外形線
100
AcDbLine
 10
-1562.545204204239
 20
-342.776280837074
 30
0.0
 11
-1468.545204204239
 21
-342.776280837074
 31
0.0
  0
ENDSEC
  0
SECTION
  2
OBJECTS
  0
DICTIONARY
  5
2CE
330
0
100
AcDbDictionary
281
     1
  3
ACAD_CIP_PREVIOUS_PRODUCT_INFO
350
CA2
  3
ACAD_COLOR
350
C8A
  3
ACAD_GROUP
350
2CF
  3
ACAD_LAYOUT
350
2DB
  3
ACAD_MATERIAL
350
C58
  3
ACAD_MLEADERSTYLE
350
C9F
  3
ACAD_MLINESTYLE
350
2D8
  3
ACAD_PLOTSETTINGS
350
2DA
  3
ACAD_PLOTSTYLENAME
350
2D0
  3
ACAD_SCALELIST
350
C8D
  3
ACAD_TABLESTYLE
350
C8B
  3
ACAD_VISUALSTYLE
350
C71
  3
ACDB_RECOMPOSE_DATA
350
319A
  3
AcDbVariableDictionary
350
4E7
  0
DICTIONARY
  5
17D6
330
2CA
100
AcDbDictionary
280
     1
281
     1
  0
DICTIONARY
  5
13CB
330
2C4
100
AcDbDictionary
280
     1
281
     1
  3
ACAD_LAYERSTATES
360
13CC
  0
DICTIONARY
  5
CA3
330
2D2
100
AcDbDictionary
280
     1
281
     1
  3
ADSK_XREC_LAYER_RECONCILED
360
CA4
  0
DICTIONARY
  5
CA5
330
2E4
100
AcDbDictionary
280
     1
281
     1
  3
ADSK_XREC_LAYER_RECONCILED
360
CA6
  0
DICTIONARY
  5
CA7
330
2EA
100
AcDbDictionary
280
     1
281
     1
  3
ADSK_XREC_LAYER_RECONCILED
360
CA8
  0
DICTIONARY
  5
CA9
330
2F0
100
AcDbDictionary
280
     1
281
     1
  3
ADSK_XREC_LAYER_RECONCILED
360
CAA
  0
DICTIONARY
  5
194F
330
194E
100
AcDbDictionary
280
     1
281
     1
  0
DICTIONARY
  5
1CA1
330
1CA0
100
AcDbDictionary
280
     1
281
     1
  0
DICTIONARY
  5
12DF
330
2E0
100
AcDbDictionary
280
     1
281
     1
  3
ACAD_SORTENTS
360
12E0
  0
XRECORD
  5
CA2
102
{ACAD_REACTORS
330
2CE
102
}
330
2CE
100
AcDbXrecord
280
     1
300
ACDLT
300
2012
300
ACDLT_F_S
  0
DICTIONARY
  5
C8A
102
{ACAD_REACTORS
330
2CE
102
}
330
2CE
100
AcDbDictionary
281
     1
  0
DICTIONARY
  5
2CF
102
{ACAD_REACTORS
330
2CE
102
}
330
2CE
100
AcDbDictionary
281
     1
  0
DICTIONARY
  5
2DB
102
{ACAD_REACTORS
330
2CE
102
}
330
2CE
100
AcDbDictionary
281
     1
  3
Model
350
2E3
  3
ﾚｲｱｳﾄ1
350
2DF
  0
DICTIONARY
  5
C58
102
{ACAD_REACTORS
330
2CE
102
}
330
2CE
100
AcDbDictionary
281
     1
  3
ByBlock
350
C61
  3
ByLayer
350
C59
  3
Global
350
C69
  0
DICTIONARY
  5
C9F
102
{ACAD_REACTORS
330
2CE
102
}
330
2CE
100
AcDbDictionary
281
     1
  3
Standard
350
CA0
  0
DICTIONARY
  5
2D8
102
{ACAD_REACTORS
330
2CE
102
}
330
2CE
100
AcDbDictionary
281
     1
  3
Standard
350
2D9
  0
DICTIONARY
  5
2DA
102
{ACAD_REACTORS
330
2CE
102
}
330
2CE
100
AcDbDictionary
281
     1
  0
ACDBDICTIONARYWDFLT
  5
2D0
102
{ACAD_REACTORS
330
2CE
102
}
330
2CE
100
AcDbDictionary
281
     1
  3
Normal
350
2D1
100
AcDbDictionaryWithDefault
340
2D1
  0
DICTIONARY
  5
C8D
102
{ACAD_REACTORS
330
2CE
102
}
330
2CE
100
AcDbDictionary
281
     1
  3
A0
350
C8E
  3
A1
350
C8F
  3
A2
350
C90
  3
A3
350
C91
  3
A4
350
C92
  3
A5
350
C93
  3
A6
350
C94
  3
A7
350
C95
  3
A8
350
C96
  3
A9
350
C97
  3
B0
350
C98
  3
B1
350
C99
  3
B2
350
C9A
  3
B3
350
C9B
  3
B4
350
C9C
  3
B5
350
C9D
  3
B6
350
C9E
  0
DICTIONARY
  5
C8B
102
{ACAD_REACTORS
330
2CE
102
}
330
2CE
100
AcDbDictionary
281
     1
  3
Standard
350
C8C
  0
DICTIONARY
  5
C71
102
{ACAD_REACTORS
330
2CE
102
}
330
2CE
100
AcDbDictionary
281
     1
  3
2dWireframe
350
C77
  3
Basic
350
C76
  3
Brighten
350
C7D
  3
ColorChange
350
C81
  3
Conceptual
350
C7A
  3
Dim
350
C7C
  3
EdgeColorOff
350
C89
  3
Facepattern
350
C80
  3
Flat
350
C72
  3
FlatWithEdges
350
C73
  3
Gouraud
350
C74
  3
GouraudWithEdges
350
C75
  3
Hidden
350
C79
  3
JitterOff
350
C87
  3
Linepattern
350
C7F
  3
OverhangOff
350
C88
  3
Realistic
350
C7B
  3
Shaded
350
C86
  3
Shaded with edges
350
C85
  3
Shades of Gray
350
C82
  3
Sketchy
350
C83
  3
Thicken
350
C7E
  3
Wireframe
350
C78
  3
X-Ray
350
C84
  0
XRECORD
  5
319A
102
{ACAD_REACTORS
330
2CE
102
}
330
2CE
100
AcDbXrecord
280
     1
 90
        1
330
C8C
  0
DICTIONARY
  5
4E7
102
{ACAD_REACTORS
330
2CE
102
}
330
2CE
100
AcDbDictionary
281
     1
  3
CANNOSCALE
350
CAF
  3
CMLEADERSTYLE
350
CAD
  3
CTABLESTYLE
350
CAC
  3
DIMASSOC
350
4E8
  3
INDEXCTL
350
1819
  3
LAYEREVAL
350
CB1
  3
LAYERNOTIFY
350
CB2
  3
LIGHTINGUNITS
350
CB0
  3
MSLTSCALE
350
CAE
  3
SORTENTS
350
1818
  0
DICTIONARY
  5
13CC
102
{ACAD_REACTORS
330
13CB
102
}
330
13CB
100
AcDbDictionary
281
     1
  0
XRECORD
  5
CA4
102
{ACAD_REACTORS
330
CA3
102
}
330
CA3
100
AcDbXrecord
280
     1
290
     1
  0
XRECORD
  5
CA6
102
{ACAD_REACTORS
330
CA5
102
}
330
CA5
100
AcDbXrecord
280
     1
290
     1
  0
XRECORD
  5
CA8
102
{ACAD_REACTORS
330
CA7
102
}
330
CA7
100
AcDbXrecord
280
     1
290
     1
  0
XRECORD
  5
CAA
102
{ACAD_REACTORS
330
CA9
102
}
330
CA9
100
AcDbXrecord
280
     1
290
     1
  0
SORTENTSTABLE
  5
12E0
102
{ACAD_REACTORS
330
12DF
102
}
330
12DF
100
AcDbSortentsTable
330
2E0
  0
LAYOUT
  5
2E3
102
{ACAD_XDICTIONARY
360
13D1
102
}
102
{ACAD_REACTORS
330
2DB
102
}
330
2DB
100
AcDbPlotSettings
  1

  2
RICOH IPSiO SP 6310 RPCS
  4
A4
  6

 40
5.873749732971191
 41
5.873748779296875
 42
5.873733520507812
 43
5.873748779296875
 44
209.9733276367187
 45
296.9259948730469
 46
0.0
 47
2.941516901982566
 48
490.9840648694898
 49
-870.3934561482833
140
1343.544294824796
141
330.8434730566378
142
1.0
143
4.30095395788558
 70
 11956
 72
     1
 73
     0
 74
     4
  7
INABA-CAD-Canon.ctb
 75
     0
147
0.2325065577990089
 76
     0
 77
     2
 78
   300
148
-490.9840648694898
149
870.3934561482833
100
AcDbLayout
  1
Model
 70
     1
 71
     0
 10
0.0
 20
0.0
 11
12.0
 21
9.0
 12
0.0
 22
0.0
 32
0.0
 14
0.0
 24
0.0
 34
0.0
 15
0.0
 25
0.0
 35
0.0
146
0.0
 13
0.0
 23
0.0
 33
0.0
 16
1.0
 26
0.0
 36
0.0
 17
0.0
 27
1.0
 37
0.0
 76
     0
330
2E0
331
C53
1001
ACAD_PSEXT
1000
RICOH IPSiO SP 6310 RPCS
1000
RICOH IPSiO SP 6310 RPCS
1000
IP_192.168.210.201
1000
RPCS Driver (Windows XP/2003/2008/Vista/7 64-bit)
1070
     0
  0
LAYOUT
  5
2DF
102
{ACAD_REACTORS
330
2DB
102
}
330
2DB
100
AcDbPlotSettings
  1

  2
Canon LASER SHOT LBP-1710
  4

  6

 40
0.0
 41
0.0
 42
0.0
 43
0.0
 44
0.0
 45
0.0
 46
0.0
 47
0.0
 48
0.0
 49
0.0
140
0.0
141
0.0
142
1.0
143
1.0
 70
   688
 72
     0
 73
     0
 74
     5
  7
INABA-CAD-Canon.ctb
 75
    16
147
1.0
 76
     0
 77
     2
 78
   300
148
0.0
149
0.0
100
AcDbLayout
  1
ﾚｲｱｳﾄ1
 70
     1
 71
     1
 10
0.0
 20
0.0
 11
420.0
 21
297.0
 12
0.0
 22
0.0
 32
0.0
 14
1.000000000000000E+20
 24
1.000000000000000E+20
 34
1.000000000000000E+20
 15
-1.000000000000000E+20
 25
-1.000000000000000E+20
 35
-1.000000000000000E+20
146
0.0
 13
0.0
 23
0.0
 33
0.0
 16
1.0
 26
0.0
 36
0.0
 17
0.0
 27
1.0
 37
0.0
 76
     0
330
2DC
  0
MATERIAL
  5
C61
102
{ACAD_XDICTIONARY
360
C62
102
}
102
{ACAD_REACTORS
330
C58
102
}
330
C58
100
AcDbMaterial
  1
ByBlock
 72
     0
 43
0.0208333333333333
 43
0.0
 43
0.0
 43
0.0
 43
0.0
 43
0.0208333333333333
 43
0.0
 43
0.0
 43
0.0
 43
0.0
 43
1.0
 43
0.0
 43
0.0
 43
0.0
 43
0.0
 43
1.0
 77
     0
 47
0.0208333333333333
 47
0.0
 47
0.0
 47
0.0
 47
0.0
 47
0.0208333333333333
 47
0.0
 47
0.0
 47
0.0
 47
0.0
 47
1.0
 47
0.0
 47
0.0
 47
0.0
 47
0.0
 47
1.0
171
     0
 49
0.0208333333333333
 49
0.0
 49
0.0
 49
0.0
 49
0.0
 49
0.0208333333333333
 49
0.0
 49
0.0
 49
0.0
 49
0.0
 49
1.0
 49
0.0
 49
0.0
 49
0.0
 49
0.0
 49
1.0
175
     0
142
0.0208333333333333
142
0.0
142
0.0
142
0.0
142
0.0
142
0.0208333333333333
142
0.0
142
0.0
142
0.0
142
0.0
142
1.0
142
0.0
142
0.0
142
0.0
142
0.0
142
1.0
179
     0
144
0.0208333333333333
144
0.0
144
0.0
144
0.0
144
0.0
144
0.0208333333333333
144
0.0
144
0.0
144
0.0
144
0.0
144
1.0
144
0.0
144
0.0
144
0.0
144
0.0
144
1.0
147
0.0208333333333333
147
0.0
147
0.0
147
0.0
147
0.0
147
0.0208333333333333
147
0.0
147
0.0
147
0.0
147
0.0
147
1.0
147
0.0
147
0.0
147
0.0
147
0.0
147
1.0
  0
MATERIAL
  5
C59
102
{ACAD_XDICTIONARY
360
C5A
102
}
102
{ACAD_REACTORS
330
C58
102
}
330
C58
100
AcDbMaterial
  1
ByLayer
 72
     0
 43
0.0208333333333333
 43
0.0
 43
0.0
 43
0.0
 43
0.0
 43
0.0208333333333333
 43
0.0
 43
0.0
 43
0.0
 43
0.0
 43
1.0
 43
0.0
 43
0.0
 43
0.0
 43
0.0
 43
1.0
 77
     0
 47
0.0208333333333333
 47
0.0
 47
0.0
 47
0.0
 47
0.0
 47
0.0208333333333333
 47
0.0
 47
0.0
 47
0.0
 47
0.0
 47
1.0
 47
0.0
 47
0.0
 47
0.0
 47
0.0
 47
1.0
171
     0
 49
0.0208333333333333
 49
0.0
 49
0.0
 49
0.0
 49
0.0
 49
0.0208333333333333
 49
0.0
 49
0.0
 49
0.0
 49
0.0
 49
1.0
 49
0.0
 49
0.0
 49
0.0
 49
0.0
 49
1.0
175
     0
142
0.0208333333333333
142
0.0
142
0.0
142
0.0
142
0.0
142
0.0208333333333333
142
0.0
142
0.0
142
0.0
142
0.0
142
1.0
142
0.0
142
0.0
142
0.0
142
0.0
142
1.0
179
     0
144
0.0208333333333333
144
0.0
144
0.0
144
0.0
144
0.0
144
0.0208333333333333
144
0.0
144
0.0
144
0.0
144
0.0
144
1.0
144
0.0
144
0.0
144
0.0
144
0.0
144
1.0
147
0.0208333333333333
147
0.0
147
0.0
147
0.0
147
0.0
147
0.0208333333333333
147
0.0
147
0.0
147
0.0
147
0.0
147
1.0
147
0.0
147
0.0
147
0.0
147
0.0
147
1.0
  0
MATERIAL
  5
C69
102
{ACAD_XDICTIONARY
360
C6A
102
}
102
{ACAD_REACTORS
330
C58
102
}
330
C58
100
AcDbMaterial
  1
Global
 72
     0
 43
0.0208333333333333
 43
0.0
 43
0.0
 43
0.0
 43
0.0
 43
0.0208333333333333
 43
0.0
 43
0.0
 43
0.0
 43
0.0
 43
1.0
 43
0.0
 43
0.0
 43
0.0
 43
0.0
 43
1.0
 77
     0
 47
0.0208333333333333
 47
0.0
 47
0.0
 47
0.0
 47
0.0
 47
0.0208333333333333
 47
0.0
 47
0.0
 47
0.0
 47
0.0
 47
1.0
 47
0.0
 47
0.0
 47
0.0
 47
0.0
 47
1.0
171
     0
 49
0.0208333333333333
 49
0.0
 49
0.0
 49
0.0
 49
0.0
 49
0.0208333333333333
 49
0.0
 49
0.0
 49
0.0
 49
0.0
 49
1.0
 49
0.0
 49
0.0
 49
0.0
 49
0.0
 49
1.0
175
     0
142
0.0208333333333333
142
0.0
142
0.0
142
0.0
142
0.0
142
0.0208333333333333
142
0.0
142
0.0
142
0.0
142
0.0
142
1.0
142
0.0
142
0.0
142
0.0
142
0.0
142
1.0
179
     0
144
0.0208333333333333
144
0.0
144
0.0
144
0.0
144
0.0
144
0.0208333333333333
144
0.0
144
0.0
144
0.0
144
0.0
144
1.0
144
0.0
144
0.0
144
0.0
144
0.0
144
1.0
147
0.0208333333333333
147
0.0
147
0.0
147
0.0
147
0.0
147
0.0208333333333333
147
0.0
147
0.0
147
0.0
147
0.0
147
1.0
147
0.0
147
0.0
147
0.0
147
0.0
147
1.0
  0
MLEADERSTYLE
  5
CA0
102
{ACAD_REACTORS
330
C9F
102
}
330
C9F
100
AcDbMLeaderStyle
179
     2
170
     2
171
     1
172
     0
 90
        2
 40
0.0
 41
0.0
173
     1
 91
-1056964608
340
2D5
 92
       -2
290
     1
 42
0.09
291
     1
 43
0.36
  3
Standard
 44
0.18
300

342
2D3
174
     1
178
     6
175
     1
176
     0
 93
-1056964608
 45
0.18
292
     0
297
     0
 46
0.18
 94
-1056964608
 47
1.0
 49
1.0
140
1.0
293
     1
141
0.0
294
     1
177
     0
142
1.0
295
     0
296
     0
143
0.125
271
     0
272
     9
273
     9
  0
MLINESTYLE
  5
2D9
102
{ACAD_REACTORS
330
2D8
102
}
330
2D8
100
AcDbMlineStyle
  2
STANDARD
 70
     0
  3

 62
   256
 51
90.0
 52
90.0
 71
     2
 49
0.5
 62
   256
  6
BYLAYER
 49
-0.5
 62
   256
  6
BYLAYER
  0
ACDBPLACEHOLDER
  5
2D1
102
{ACAD_REACTORS
330
2D0
102
}
330
2D0
  0
SCALE
  5
C8E
102
{ACAD_REACTORS
330
C8D
102
}
330
C8D
100
AcDbScale
 70
     0
300
1:1
140
1.0
141
1.0
290
     1
  0
SCALE
  5
C8F
102
{ACAD_REACTORS
330
C8D
102
}
330
C8D
100
AcDbScale
 70
     0
300
1/128" = 1'-0"
140
0.0078125
141
12.0
290
     0
  0
SCALE
  5
C90
102
{ACAD_REACTORS
330
C8D
102
}
330
C8D
100
AcDbScale
 70
     0
300
1/64" = 1'-0"
140
0.015625
141
12.0
290
     0
  0
SCALE
  5
C91
102
{ACAD_REACTORS
330
C8D
102
}
330
C8D
100
AcDbScale
 70
     0
300
1/32" = 1'-0"
140
0.03125
141
12.0
290
     0
  0
SCALE
  5
C92
102
{ACAD_REACTORS
330
C8D
102
}
330
C8D
100
AcDbScale
 70
     0
300
1/16" = 1'-0"
140
0.0625
141
12.0
290
     0
  0
SCALE
  5
C93
102
{ACAD_REACTORS
330
C8D
102
}
330
C8D
100
AcDbScale
 70
     0
300
3/32" = 1'-0"
140
0.09375
141
12.0
290
     0
  0
SCALE
  5
C94
102
{ACAD_REACTORS
330
C8D
102
}
330
C8D
100
AcDbScale
 70
     0
300
1/8" = 1'-0"
140
0.125
141
12.0
290
     0
  0
SCALE
  5
C95
102
{ACAD_REACTORS
330
C8D
102
}
330
C8D
100
AcDbScale
 70
     0
300
3/16" = 1'-0"
140
0.1875
141
12.0
290
     0
  0
SCALE
  5
C96
102
{ACAD_REACTORS
330
C8D
102
}
330
C8D
100
AcDbScale
 70
     0
300
1/4" = 1'-0"
140
0.25
141
12.0
290
     0
  0
SCALE
  5
C97
102
{ACAD_REACTORS
330
C8D
102
}
330
C8D
100
AcDbScale
 70
     0
300
3/8" = 1'-0"
140
0.375
141
12.0
290
     0
  0
SCALE
  5
C98
102
{ACAD_REACTORS
330
C8D
102
}
330
C8D
100
AcDbScale
 70
     0
300
1/2" = 1'-0"
140
0.5
141
12.0
290
     0
  0
SCALE
  5
C99
102
{ACAD_REACTORS
330
C8D
102
}
330
C8D
100
AcDbScale
 70
     0
300
3/4" = 1'-0"
140
0.75
141
12.0
290
     0
  0
SCALE
  5
C9A
102
{ACAD_REACTORS
330
C8D
102
}
330
C8D
100
AcDbScale
 70
     0
300
1" = 1'-0"
140
1.0
141
12.0
290
     0
  0
SCALE
  5
C9B
102
{ACAD_REACTORS
330
C8D
102
}
330
C8D
100
AcDbScale
 70
     0
300
1-1/2" = 1'-0"
140
1.5
141
12.0
290
     0
  0
SCALE
  5
C9C
102
{ACAD_REACTORS
330
C8D
102
}
330
C8D
100
AcDbScale
 70
     0
300
3" = 1'-0"
140
3.0
141
12.0
290
     0
  0
SCALE
  5
C9D
102
{ACAD_REACTORS
330
C8D
102
}
330
C8D
100
AcDbScale
 70
     0
300
6" = 1'-0"
140
6.0
141
12.0
290
     0
  0
SCALE
  5
C9E
102
{ACAD_REACTORS
330
C8D
102
}
330
C8D
100
AcDbScale
 70
     0
300
1'-0" = 1'-0"
140
12.0
141
12.0
290
     0
  0
TABLESTYLE
  5
C8C
102
{ACAD_XDICTIONARY
360
17D2
102
}
102
{ACAD_REACTORS
330
C8B
102
}
330
C8B
100
AcDbTableStyle
280
     0
  3
Standard
 70
     0
 71
     0
 40
0.06
 41
0.06
280
     0
281
     0
  7
STANDARD
140
0.18
170
     2
 62
     0
 63
     7
283
     0
 90
      512
 91
        0
  1

274
    -2
284
     1
 64
     0
275
    -2
285
     1
 65
     0
276
    -2
286
     1
 66
     0
277
    -2
287
     1
 67
     0
278
    -2
288
     1
 68
     0
279
    -2
289
     1
 69
     0
  7
STANDARD
140
0.25
170
     5
 62
     0
 63
     7
283
     0
 90
      512
 91
        0
  1

274
    -2
284
     1
 64
     0
275
    -2
285
     1
 65
     0
276
    -2
286
     1
 66
     0
277
    -2
287
     1
 67
     0
278
    -2
288
     1
 68
     0
279
    -2
289
     1
 69
     0
  7
STANDARD
140
0.18
170
     5
 62
     0
 63
     7
283
     0
 90
      512
 91
        0
  1

274
    -2
284
     1
 64
     0
275
    -2
285
     1
 65
     0
276
    -2
286
     1
 66
     0
277
    -2
287
     1
 67
     0
278
    -2
288
     1
 68
     0
279
    -2
289
     1
 69
     0
  0
VISUALSTYLE
  5
C77
102
{ACAD_REACTORS
330
C71
102
}
330
C71
100
AcDbVisualStyle
  2
2dWireframe
 70
     4
177
     2
291
     0
 71
     0
176
     1
 72
     2
176
     1
 73
     0
176
     1
 90
        0
176
     1
 40
0.6
176
     1
 41
30.0
176
     1
 63
     7
176
     1
 74
     1
176
     1
 91
        4
176
     1
 64
     7
176
     1
 65
   257
176
     1
 75
     1
176
     1
175
     1
176
     1
 42
1.0
176
     1
 92
        0
176
     1
 66
   257
176
     1
 43
1.0
176
     1
 76
     1
176
     1
 77
     6
176
     1
 78
     2
176
     1
 67
     7
176
     1
 79
     5
176
     1
170
     0
176
     1
171
     0
176
     1
290
     0
176
     1
 93
        1
176
     1
 44
0.0
176
     1
173
     0
176
     1
  0
VISUALSTYLE
  5
C76
102
{ACAD_REACTORS
330
C71
102
}
330
C71
100
AcDbVisualStyle
  2
Basic
 70
     7
177
     2
291
     1
 71
     1
176
     1
 72
     0
176
     1
 73
     1
176
     1
 90
        0
176
     1
 40
0.6
176
     1
 41
30.0
176
     1
 63
     7
176
     1
 74
     0
176
     1
 91
        4
176
     1
 64
     7
176
     1
 65
   257
176
     1
 75
     1
176
     1
175
     1
176
     1
 42
1.0
176
     1
 92
        8
176
     1
 66
     7
176
     1
 43
1.0
176
     1
 76
     1
176
     1
 77
     6
176
     1
 78
     2
176
     1
 67
     7
176
     1
 79
     5
176
     1
170
     0
176
     1
171
     0
176
     1
290
     0
176
     1
 93
        1
176
     1
 44
0.0
176
     1
173
     0
176
     1
  0
VISUALSTYLE
  5
C7D
102
{ACAD_REACTORS
330
C71
102
}
330
C71
100
AcDbVisualStyle
  2
Brighten
 70
    12
177
     2
291
     1
 71
     2
176
     1
 72
     2
176
     1
 73
     0
176
     1
 90
        0
176
     1
 40
0.6
176
     1
 41
30.0
176
     1
 63
     7
176
     1
 74
     1
176
     1
 91
        4
176
     1
 64
     7
176
     1
 65
   257
176
     1
 75
     1
176
     1
175
     1
176
     1
 42
1.0
176
     1
 92
        8
176
     1
 66
     7
176
     1
 43
1.0
176
     1
 76
     1
176
     1
 77
     6
176
     1
 78
     2
176
     1
 67
     7
176
     1
 79
     5
176
     1
170
     0
176
     1
171
     0
176
     1
290
     0
176
     1
 93
        1
176
     1
 44
50.0
176
     1
173
     0
176
     1
  0
VISUALSTYLE
  5
C81
102
{ACAD_REACTORS
330
C71
102
}
330
C71
100
AcDbVisualStyle
  2
ColorChange
 70
    16
177
     2
291
     1
 71
     2
176
     1
 72
     2
176
     1
 73
     3
176
     1
 90
        0
176
     1
 40
0.6
176
     1
 41
30.0
176
     1
 63
     8
176
     1
 74
     1
176
     1
 91
        4
176
     1
 64
     7
176
     1
 65
   257
176
     1
 75
     1
176
     1
175
     1
176
     1
 42
1.0
176
     1
 92
        8
176
     1
 66
     8
176
     1
 43
1.0
176
     1
 76
     1
176
     1
 77
     6
176
     1
 78
     2
176
     1
 67
     7
176
     1
 79
     5
176
     1
170
     0
176
     1
171
     0
176
     1
290
     0
176
     1
 93
        1
176
     1
 44
0.0
176
     1
173
     0
176
     1
  0
VISUALSTYLE
  5
C7A
102
{ACAD_REACTORS
330
C71
102
}
330
C71
100
AcDbVisualStyle
  2
Conceptual
 70
     9
177
     2
291
     0
 71
     3
176
     1
 72
     2
176
     1
 73
     0
176
     1
 90
        0
176
     1
 40
0.6
176
     1
 41
30.0
176
     1
 63
     7
176
     1
 74
     2
176
     1
 91
        2
176
     1
 64
     7
176
     1
 65
   257
176
     1
 75
     1
176
     1
175
     1
176
     1
 42
179.0
176
     1
 92
        8
176
     1
 66
     7
176
     1
 43
1.0
176
     1
 76
     1
176
     1
 77
     6
176
     1
 78
     2
176
     1
 67
     7
176
     1
 79
     3
176
     1
170
     0
176
     1
171
     0
176
     1
290
     0
176
     1
 93
        1
176
     1
 44
0.0
176
     1
173
     0
176
     1
  0
VISUALSTYLE
  5
C7C
102
{ACAD_REACTORS
330
C71
102
}
330
C71
100
AcDbVisualStyle
  2
Dim
 70
    11
177
     2
291
     1
 71
     2
176
     1
 72
     2
176
     1
 73
     0
176
     1
 90
        0
176
     1
 40
0.6
176
     1
 41
30.0
176
     1
 63
     7
176
     1
 74
     1
176
     1
 91
        4
176
     1
 64
     7
176
     1
 65
   257
176
     1
 75
     1
176
     1
175
     1
176
     1
 42
1.0
176
     1
 92
        8
176
     1
 66
     7
176
     1
 43
1.0
176
     1
 76
     1
176
     1
 77
     6
176
     1
 78
     2
176
     1
 67
     7
176
     1
 79
     5
176
     1
170
     0
176
     1
171
     0
176
     1
290
     0
176
     1
 93
        1
176
     1
 44
-50.0
176
     1
173
     0
176
     1
  0
VISUALSTYLE
  5
C89
102
{ACAD_REACTORS
330
C71
102
}
330
C71
100
AcDbVisualStyle
  2
EdgeColorOff
 70
    22
177
     2
291
     1
 71
     2
176
     0
 72
     2
176
     0
 73
     0
176
     0
 90
        0
176
     0
 40
0.6
176
     0
 41
30.0
176
     0
 63
     7
176
     0
 74
     1
176
     0
 91
        4
176
     0
 64
     7
176
     0
 65
   257
176
     0
 75
     1
176
     0
175
     1
176
     0
 42
1.0
176
     0
 92
        8
176
     2
 66
     7
176
     0
 43
1.0
176
     0
 76
     1
176
     0
 77
     6
176
     0
 78
     2
176
     0
 67
     7
176
     0
 79
     5
176
     0
170
     0
176
     0
171
     0
176
     0
290
     0
176
     0
 93
        1
176
     0
 44
0.0
176
     0
173
     0
176
     0
  0
VISUALSTYLE
  5
C80
102
{ACAD_REACTORS
330
C71
102
}
330
C71
100
AcDbVisualStyle
  2
Facepattern
 70
    15
177
     2
291
     1
 71
     2
176
     1
 72
     2
176
     1
 73
     0
176
     1
 90
        0
176
     1
 40
0.6
176
     1
 41
30.0
176
     1
 63
     7
176
     1
 74
     1
176
     1
 91
        4
176
     1
 64
     7
176
     1
 65
   257
176
     1
 75
     1
176
     1
175
     1
176
     1
 42
1.0
176
     1
 92
        8
176
     1
 66
     7
176
     1
 43
1.0
176
     1
 76
     1
176
     1
 77
     6
176
     1
 78
     2
176
     1
 67
     7
176
     1
 79
     5
176
     1
170
     0
176
     1
171
     0
176
     1
290
     0
176
     1
 93
        1
176
     1
 44
0.0
176
     1
173
     0
176
     1
  0
VISUALSTYLE
  5
C72
102
{ACAD_REACTORS
330
C71
102
}
330
C71
100
AcDbVisualStyle
  2
Flat
 70
     0
177
     2
291
     1
 71
     2
176
     1
 72
     1
176
     1
 73
     1
176
     1
 90
        2
176
     1
 40
0.6
176
     1
 41
30.0
176
     1
 63
     7
176
     1
 74
     0
176
     1
 91
        0
176
     1
 64
     7
176
     1
 65
   257
176
     1
 75
     1
176
     1
175
     1
176
     1
 42
1.0
176
     1
 92
        8
176
     1
 66
     7
176
     1
 43
1.0
176
     1
 76
     1
176
     1
 77
     6
176
     1
 78
     2
176
     1
 67
     7
176
     1
 79
     5
176
     1
170
     0
176
     1
171
     0
176
     1
290
     0
176
     1
 93
       13
176
     1
 44
0.0
176
     1
173
     0
176
     1
  0
VISUALSTYLE
  5
C73
102
{ACAD_REACTORS
330
C71
102
}
330
C71
100
AcDbVisualStyle
  2
FlatWithEdges
 70
     1
177
     2
291
     1
 71
     2
176
     1
 72
     1
176
     1
 73
     1
176
     1
 90
        2
176
     1
 40
0.6
176
     1
 41
30.0
176
     1
 63
     7
176
     1
 74
     1
176
     1
 91
        0
176
     1
 64
     7
176
     1
 65
   257
176
     1
 75
     1
176
     1
175
     1
176
     1
 42
1.0
176
     1
 92
        0
176
     1
 66
   257
176
     1
 43
1.0
176
     1
 76
     1
176
     1
 77
     6
176
     1
 78
     2
176
     1
 67
     7
176
     1
 79
     5
176
     1
170
     0
176
     1
171
     0
176
     1
290
     0
176
     1
 93
       13
176
     1
 44
0.0
176
     1
173
     0
176
     1
  0
VISUALSTYLE
  5
C74
102
{ACAD_REACTORS
330
C71
102
}
330
C71
100
AcDbVisualStyle
  2
Gouraud
 70
     2
177
     2
291
     1
 71
     2
176
     1
 72
     2
176
     1
 73
     1
176
     1
 90
        2
176
     1
 40
0.6
176
     1
 41
30.0
176
     1
 63
     7
176
     1
 74
     0
176
     1
 91
        0
176
     1
 64
     7
176
     1
 65
   257
176
     1
 75
     1
176
     1
175
     1
176
     1
 42
1.0
176
     1
 92
        0
176
     1
 66
     7
176
     1
 43
1.0
176
     1
 76
     1
176
     1
 77
     6
176
     1
 78
     2
176
     1
 67
     7
176
     1
 79
     5
176
     1
170
     0
176
     1
171
     0
176
     1
290
     0
176
     1
 93
       13
176
     1
 44
0.0
176
     1
173
     0
176
     1
  0
VISUALSTYLE
  5
C75
102
{ACAD_REACTORS
330
C71
102
}
330
C71
100
AcDbVisualStyle
  2
GouraudWithEdges
 70
     3
177
     2
291
     1
 71
     2
176
     1
 72
     2
176
     1
 73
     1
176
     1
 90
        2
176
     1
 40
0.6
176
     1
 41
30.0
176
     1
 63
     7
176
     1
 74
     1
176
     1
 91
        0
176
     1
 64
     7
176
     1
 65
   257
176
     1
 75
     1
176
     1
175
     1
176
     1
 42
1.0
176
     1
 92
        0
176
     1
 66
   257
176
     1
 43
1.0
176
     1
 76
     1
176
     1
 77
     6
176
     1
 78
     2
176
     1
 67
     7
176
     1
 79
     5
176
     1
170
     0
176
     1
171
     0
176
     1
290
     0
176
     1
 93
       13
176
     1
 44
0.0
176
     1
173
     0
176
     1
  0
VISUALSTYLE
  5
C79
102
{ACAD_REACTORS
330
C71
102
}
330
C71
100
AcDbVisualStyle
  2
Hidden
 70
     6
177
     2
291
     0
 71
     1
176
     1
 72
     2
176
     1
 73
     2
176
     1
 90
        0
176
     1
 40
0.6
176
     1
 41
30.0
176
     1
 63
     7
176
     1
 74
     2
176
     1
 91
        2
176
     1
 64
     7
176
     1
 65
   257
176
     1
 75
     2
176
     1
175
     1
176
     1
 42
40.0
176
     1
 92
        0
176
     1
 66
   257
176
     1
 43
1.0
176
     1
 76
     1
176
     1
 77
     6
176
     1
 78
     2
176
     1
 67
     7
176
     1
 79
     3
176
     1
170
     0
176
     1
171
     0
176
     1
290
     0
176
     1
 93
        1
176
     1
 44
0.0
176
     1
173
     0
176
     1
  0
VISUALSTYLE
  5
C87
102
{ACAD_REACTORS
330
C71
102
}
330
C71
100
AcDbVisualStyle
  2
JitterOff
 70
    20
177
     2
291
     1
 71
     2
176
     0
 72
     2
176
     0
 73
     0
176
     0
 90
        0
176
     0
 40
0.6
176
     0
 41
30.0
176
     0
 63
     7
176
     0
 74
     1
176
     0
 91
        4
176
     0
 64
     7
176
     0
 65
   257
176
     0
 75
     1
176
     0
175
     1
176
     0
 42
1.0
176
     0
 92
       10
176
     2
 66
     7
176
     0
 43
1.0
176
     0
 76
     1
176
     0
 77
     6
176
     0
 78
     2
176
     0
 67
     7
176
     0
 79
     5
176
     0
170
     0
176
     0
171
     0
176
     0
290
     0
176
     0
 93
        1
176
     0
 44
0.0
176
     0
173
     0
176
     0
  0
VISUALSTYLE
  5
C7F
102
{ACAD_REACTORS
330
C71
102
}
330
C71
100
AcDbVisualStyle
  2
Linepattern
 70
    14
177
     2
291
     1
 71
     2
176
     1
 72
     2
176
     1
 73
     0
176
     1
 90
        0
176
     1
 40
0.6
176
     1
 41
30.0
176
     1
 63
     7
176
     1
 74
     1
176
     1
 91
        4
176
     1
 64
     7
176
     1
 65
   257
176
     1
 75
     7
176
     1
175
     7
176
     1
 42
1.0
176
     1
 92
        8
176
     1
 66
     7
176
     1
 43
1.0
176
     1
 76
     1
176
     1
 77
     6
176
     1
 78
     2
176
     1
 67
     7
176
     1
 79
     5
176
     1
170
     0
176
     1
171
     0
176
     1
290
     0
176
     1
 93
        1
176
     1
 44
0.0
176
     1
173
     0
176
     1
  0
VISUALSTYLE
  5
C88
102
{ACAD_REACTORS
330
C71
102
}
330
C71
100
AcDbVisualStyle
  2
OverhangOff
 70
    21
177
     2
291
     1
 71
     2
176
     0
 72
     2
176
     0
 73
     0
176
     0
 90
        0
176
     0
 40
0.6
176
     0
 41
30.0
176
     0
 63
     7
176
     0
 74
     1
176
     0
 91
        4
176
     0
 64
     7
176
     0
 65
   257
176
     0
 75
     1
176
     0
175
     1
176
     0
 42
1.0
176
     0
 92
        9
176
     2
 66
     7
176
     0
 43
1.0
176
     0
 76
     1
176
     0
 77
     6
176
     0
 78
     2
176
     0
 67
     7
176
     0
 79
     5
176
     0
170
     0
176
     0
171
     0
176
     0
290
     0
176
     0
 93
        1
176
     0
 44
0.0
176
     0
173
     0
176
     0
  0
VISUALSTYLE
  5
C7B
102
{ACAD_REACTORS
330
C71
102
}
330
C71
100
AcDbVisualStyle
  2
Realistic
 70
     8
177
     2
291
     0
 71
     2
176
     1
 72
     2
176
     1
 73
     0
176
     1
 90
        2
176
     1
 40
0.6
176
     1
 41
30.0
176
     1
 63
     7
176
     1
 74
     0
176
     1
 91
        0
176
     1
 64
     7
176
     1
 65
   257
176
     1
 75
     1
176
     1
175
     1
176
     1
 42
1.0
176
     1
 92
        8
176
     1
 66
   257
176
     1
 43
1.0
176
     1
 76
     1
176
     1
 77
     6
176
     1
 78
     2
176
     1
 67
     7
176
     1
 79
     3
176
     1
170
     0
176
     1
171
     0
176
     1
290
     0
176
     1
 93
       13
176
     1
 44
0.0
176
     1
173
     0
176
     1
  0
VISUALSTYLE
  5
C86
102
{ACAD_REACTORS
330
C71
102
}
330
C71
100
AcDbVisualStyle
  2
Shaded
 70
    27
177
     2
291
     0
 71
     2
176
     1
 72
     2
176
     1
 73
     1
176
     1
 90
        2
176
     1
 40
0.6
176
     1
 41
30.0
176
     1
 63
     7
176
     1
 74
     0
176
     1
 91
        4
176
     1
 64
     7
176
     1
 65
   257
176
     1
 75
     1
176
     1
175
     1
176
     1
 42
1.0
176
     1
 92
        8
176
     1
 66
   257
176
     1
 43
1.0
176
     1
 76
     1
176
     1
 77
     6
176
     1
 78
     2
176
     1
 67
     8
176
     1
 79
     3
176
     1
170
     0
176
     1
171
     0
176
     1
290
     0
176
     1
 93
        5
176
     1
 44
0.0
176
     1
173
     0
176
     1
  0
VISUALSTYLE
  5
C85
102
{ACAD_REACTORS
330
C71
102
}
330
C71
100
AcDbVisualStyle
  2
Shaded with edges
 70
    26
177
     2
291
     0
 71
     2
176
     1
 72
     2
176
     1
 73
     1
176
     1
 90
        2
176
     1
 40
0.6
176
     1
 41
30.0
176
     1
 63
     7
176
     1
 74
     1
176
     1
 91
       10
176
     1
 64
     7
176
     1
 65
   257
176
     1
 75
     2
176
     1
175
     1
176
     1
 42
1.0
176
     1
 92
        8
176
     1
 66
   257
176
     1
 43
1.0
176
     1
 76
     1
176
     1
 77
     6
176
     1
 78
     2
176
     1
 67
     7
176
     1
 79
     3
176
     1
170
     0
176
     1
171
     0
176
     1
290
     0
176
     1
 93
        5
176
     1
 44
0.0
176
     1
173
     0
176
     1
  0
VISUALSTYLE
  5
C82
102
{ACAD_REACTORS
330
C71
102
}
330
C71
100
AcDbVisualStyle
  2
Shades of Gray
 70
    23
177
     2
291
     0
 71
     2
176
     1
 72
     2
176
     1
 73
     3
176
     1
 90
        0
176
     1
 40
0.6
176
     1
 41
30.0
176
     1
 63
     7
176
     1
 74
     2
176
     1
 91
        2
176
     1
 64
     7
176
     1
 65
     7
176
     1
 75
     1
176
     1
175
     1
176
     1
 42
40.0
176
     1
 92
        8
176
     1
 66
     7
176
     1
 43
1.0
176
     1
 76
     1
176
     1
 77
     6
176
     1
 78
     2
176
     1
 67
     7
176
     1
 79
     3
176
     1
170
     0
176
     1
171
     0
176
     1
290
     0
176
     1
 93
        1
176
     1
 44
0.0
176
     1
173
     0
176
     1
  0
VISUALSTYLE
  5
C83
102
{ACAD_REACTORS
330
C71
102
}
330
C71
100
AcDbVisualStyle
  2
Sketchy
 70
    24
177
     2
291
     0
 71
     1
176
     1
 72
     2
176
     1
 73
     2
176
     1
 90
        0
176
     1
 40
0.6
176
     1
 41
30.0
176
     1
 63
     7
176
     1
 74
     2
176
     1
 91
        2
176
     1
 64
     7
176
     1
 65
     7
176
     1
 75
     1
176
     1
175
     1
176
     1
 42
40.0
176
     1
 92
       11
176
     1
 66
     7
176
     1
 43
1.0
176
     1
 76
     1
176
     1
 77
     6
176
     1
 78
     2
176
     1
 67
     7
176
     1
 79
     6
176
     1
170
     0
176
     1
171
     0
176
     1
290
     0
176
     1
 93
        1
176
     1
 44
0.0
176
     1
173
     0
176
     1
  0
VISUALSTYLE
  5
C7E
102
{ACAD_REACTORS
330
C71
102
}
330
C71
100
AcDbVisualStyle
  2
Thicken
 70
    13
177
     2
291
     1
 71
     2
176
     1
 72
     2
176
     1
 73
     0
176
     1
 90
        0
176
     1
 40
0.6
176
     1
 41
30.0
176
     1
 63
     7
176
     1
 74
     1
176
     1
 91
        4
176
     1
 64
     7
176
     1
 65
   257
176
     1
 75
     1
176
     1
175
     1
176
     1
 42
1.0
176
     1
 92
       12
176
     1
 66
     7
176
     1
 43
1.0
176
     1
 76
     1
176
     1
 77
     6
176
     1
 78
     2
176
     1
 67
     7
176
     1
 79
     5
176
     1
170
     0
176
     1
171
     0
176
     1
290
     0
176
     1
 93
        1
176
     1
 44
0.0
176
     1
173
     0
176
     1
  0
VISUALSTYLE
  5
C78
102
{ACAD_REACTORS
330
C71
102
}
330
C71
100
AcDbVisualStyle
  2
Wireframe
 70
     5
177
     2
291
     0
 71
     0
176
     1
 72
     2
176
     1
 73
     0
176
     1
 90
        0
176
     1
 40
0.6
176
     1
 41
30.0
176
     1
 63
     7
176
     1
 74
     1
176
     1
 91
        4
176
     1
 64
     7
176
     1
 65
   257
176
     1
 75
     1
176
     1
175
     1
176
     1
 42
1.0
176
     1
 92
        0
176
     1
 66
   257
176
     1
 43
1.0
176
     1
 76
     1
176
     1
 77
     6
176
     1
 78
     2
176
     1
 67
     7
176
     1
 79
     3
176
     1
170
     0
176
     1
171
     0
176
     1
290
     0
176
     1
 93
        1
176
     1
 44
0.0
176
     1
173
     0
176
     1
  0
VISUALSTYLE
  5
C84
102
{ACAD_REACTORS
330
C71
102
}
330
C71
100
AcDbVisualStyle
  2
X-Ray
 70
    25
177
     2
291
     0
 71
     2
176
     1
 72
     2
176
     1
 73
     1
176
     1
 90
        1
176
     1
 40
0.5
176
     1
 41
30.0
176
     1
 63
     7
176
     1
 74
     1
176
     1
 91
        0
176
     1
 64
     7
176
     1
 65
   257
176
     1
 75
     1
176
     1
175
     1
176
     1
 42
1.0
176
     1
 92
        8
176
     1
 66
     7
176
     1
 43
1.0
176
     1
 76
     1
176
     1
 77
     6
176
     1
 78
     2
176
     1
 67
     7
176
     1
 79
     3
176
     1
170
     0
176
     1
171
     0
176
     1
290
     0
176
     1
 93
       13
176
     1
 44
0.0
176
     1
173
     0
176
     1
  0
DICTIONARYVAR
  5
CAF
102
{ACAD_REACTORS
330
4E7
102
}
330
4E7
100
DictionaryVariables
280
     0
  1
1:1
  0
DICTIONARYVAR
  5
CAD
102
{ACAD_REACTORS
330
4E7
102
}
330
4E7
100
DictionaryVariables
280
     0
  1
STANDARD
  0
DICTIONARYVAR
  5
CAC
102
{ACAD_REACTORS
330
4E7
102
}
330
4E7
100
DictionaryVariables
280
     0
  1
STANDARD
  0
DICTIONARYVAR
  5
4E8
102
{ACAD_REACTORS
330
4E7
102
}
330
4E7
100
DictionaryVariables
280
     0
  1
1
  0
DICTIONARYVAR
  5
1819
102
{ACAD_REACTORS
330
4E7
102
}
330
4E7
100
DictionaryVariables
280
     0
  1
0
  0
DICTIONARYVAR
  5
CB1
102
{ACAD_REACTORS
330
4E7
102
}
330
4E7
100
DictionaryVariables
280
     0
  1
1
  0
DICTIONARYVAR
  5
CB2
102
{ACAD_REACTORS
330
4E7
102
}
330
4E7
100
DictionaryVariables
280
     0
  1
15
  0
DICTIONARYVAR
  5
CB0
102
{ACAD_REACTORS
330
4E7
102
}
330
4E7
100
DictionaryVariables
280
     0
  1
0
  0
DICTIONARYVAR
  5
CAE
102
{ACAD_REACTORS
330
4E7
102
}
330
4E7
100
DictionaryVariables
280
     0
  1
0
  0
DICTIONARYVAR
  5
1818
102
{ACAD_REACTORS
330
4E7
102
}
330
4E7
100
DictionaryVariables
280
     0
  1
127
  0
DICTIONARY
  5
13D1
330
2E3
100
AcDbDictionary
280
     1
281
     1
  3
ADSK_XREC_LAYOUTTHUMBNAIL
360
13D2
  0
DICTIONARY
  5
C62
330
C61
100
AcDbDictionary
280
     1
281
     1
  3
BUMPTILE
360
C64
  3
DIFFUSETILE
360
C63
  3
OPACITYTILE
360
C67
  3
REFLECTIONTILE
360
C66
  3
REFRACTIONTILE
360
C68
  3
SPECULARTILE
360
C65
  0
DICTIONARY
  5
C5A
330
C59
100
AcDbDictionary
280
     1
281
     1
  3
BUMPTILE
360
C5C
  3
DIFFUSETILE
360
C5B
  3
OPACITYTILE
360
C5F
  3
REFLECTIONTILE
360
C5E
  3
REFRACTIONTILE
360
C60
  3
SPECULARTILE
360
C5D
  0
DICTIONARY
  5
C6A
330
C69
100
AcDbDictionary
280
     1
281
     1
  3
BUMPTILE
360
C6C
  3
DIFFUSETILE
360
C6B
  3
OPACITYTILE
360
C6F
  3
REFLECTIONTILE
360
C6E
  3
REFRACTIONTILE
360
C70
  3
SPECULARTILE
360
C6D
  0
DICTIONARY
  5
17D2
330
C8C
100
AcDbDictionary
280
     1
281
     1
  3
ACAD_ROUNDTRIP_2008_TABLESTYLE_CELLSTYLEMAP
360
3199
  0
XRECORD
  5
13D2
102
{ACAD_REACTORS
330
13D1
102
}
330
13D1
100
AcDbXrecord
280
     1
310
280000000001000063000000010008000000000000630000000000000000000000010000000000003028210000000000C8C8C8000000000000000000000000000000000000000000000000000000000000000000330000006600000099000000CC000000FF00000000330000333300006633000099330000CC330000FF3300
310
0000660000336600006666000099660000CC660000FF66000000990000339900006699000099990000CC990000FF99000000CC000033CC000066CC000099CC0000CCCC0000FFCC000000FF000033FF000066FF000099FF0000CCFF0000FFFF000000003300330033006600330099003300CC003300FF003300003333003333
310
33006633330099333300CC333300FF33330000663300336633006666330099663300CC663300FF66330000993300339933006699330099993300CC993300FF99330000CC330033CC330066CC330099CC3300CCCC3300FFCC330000FF330033FF330066FF330099FF3300CCFF3300FFFF330000006600330066006600660099
310
006600CC006600FF00660000336600333366006633660099336600CC336600FF33660000666600336666006666660099666600CC666600FF66660000996600339966006699660099996600CC996600FF99660000CC660033CC660066CC660099CC6600CCCC6600FFCC660000FF660033FF660066FF660099FF6600CCFF6600
310
FFFF660000009900330099006600990099009900CC009900FF00990000339900333399006633990099339900CC339900FF33990000669900336699006666990099669900CC669900FF66990000999900339999006699990099999900CC999900FF99990000CC990033CC990066CC990099CC9900CCCC9900FFCC990000FF99
310
0033FF990066FF990099FF9900CCFF9900FFFF99000000CC003300CC006600CC009900CC00CC00CC00FF00CC000033CC003333CC006633CC009933CC00CC33CC00FF33CC000066CC003366CC006666CC009966CC00CC66CC00FF66CC000099CC003399CC006699CC009999CC00CC99CC00FF99CC0000CCCC0033CCCC0066CC
310
CC0099CCCC00CCCCCC00FFCCCC0000FFCC0033FFCC0066FFCC0099FFCC00CCFFCC00FFFFCC000000FF003300FF006600FF009900FF00CC00FF00FF00FF000033FF003333FF006633FF009933FF00CC33FF00FF33FF000066FF003366FF006666FF009966FF00CC66FF00FF66FF000099FF003399FF006699FF009999FF00CC
310
99FF00FF99FF0000CCFF0033CCFF0066CCFF0099CCFF00CCCCFF00FFCCFF0000FFFF0033FFFF0066FFFF0099FFFF00CCFFFF00FFFFFF00000000000D0D0D001A1A1A00282828003535350043434300505050005D5D5D006B6B6B00787878008686860093939300A1A1A100AEAEAE00BBBBBB00C9C9C900D6D6D600E4E4E400
310
F1F1F100FFFFFF000000000000000000000000000000000000000000000000000000000000000000000000000000000000000000000000000000000000000000000000000000000000000000000000000000000000000000000000000000000000000000000000000000000000000000000000000000000000000000000000
310
00000000000000000000000000000000000000000000000000000000000000002800000000000000000000000028280000000000000000000000000000000000280000000000000000000000000000000000000000000000000000000000000000000000000000000000280000000000000000280000000000000000000000
310
00280000000000000000000000000000000000282800000000000000000000000000000000000000000000000000000000000000000000000000000000000000000000000000000000000000000000000000000000000000000000000000000000000000000000000000000000000000000000000000000000000000000000
310
00000000000000000000000000000000000000000000000000000000000000000000280000000000000000000000002828000000000000000000000000000000000028000000000000000000000000000000000000000000000000000000000000000000000000000000000028000000000000000028000000000000000000
310
00000028000000000000000000000000000000000028280000000000000000000000000000000000000000000000000000000000000000000000000000000000000000000000000000000000000000000000000000000000000000000000000000000000000000000000000000000000000000000000000000000000000000
310
00000000000000000000000000000000000000000000000000000000000000000000000028000000000000000000000000282800000000000000000000000000000000002800000000000000000000000000000000000000000000000000000000000000000000000000000000002800000000000000002800000000000000
310
00000000002800000000000000000000000000000000002828000000000000000000000000000000000000000000000000000000000000000000000000000000000000000000000000000000000000000000000000000000000000000000000000000000000000000000000000000000000000000000000000000000000000
310
00000000000000000000000000000000000000000000000000000000000000000000000000002800000000000000000000000028280000000000000000000000000000000000280000000000000000000000000000000000000000000000000000000000000000000000000000000000280000000000000000280000000000
310
00000000000000280000000000000000000000000000000000282800000000000000000000000000000000000000000000000000000000000000000000000000000000000000000000000000000000000000000000000000000000000000000000000000000000000000000000000000000000000000000000000000000000
310
00000000000000000000000000000000000000000000000000000000000000000000000000000000280000000000000000000000002828000000000000000000000000000000000028000000000000000000000000000000000000000000000000000000000000000000000000000000000028000000000000000028000000
310
00000000000000000028000000000000000000000000000000000028280000000000000000000000000000000000000000000000000000000000000000000000000000000000000000000000000000000000000000000000000000000000000000000000000000000000000000000000000000000000000000000000000000
310
00000000000000000000000000000000000000000000000000000000000000000000000000000000000028000000000000000000000000282800000000000000000000000000000000002800000000000000000000000000000000000000000000000000000000000000000000000000000000002800000000000000002800
310
00000000000000000000002800000000000000000000000000000000002828000000000000000000000000000000000000000000000000000000000000000000000000000000000000000000000000000000000000000000000000000000000000000000000000000000000000000000000000000000000000000000000000
310
00000000000000000000000000000000000000000000000000000000000000000000000000000000000000002800000000000000000000000028280000000000000000000000000000000000280000000000000000000000000000000000000000000000000000000000000000000000000000000000280000000000000000
310
28000000000000000000000000280000000000000000000000000000000000282800000000000000000000000000000000000000000000000000000000000000000000000000000000000000000000000000000000000000000000000000000000000000000000000000000000000000000000000000000000000000000000
310
00000000000000000000000000000000000000000000000000000000000000000000000000000000000000000000280000000000000000000000002828000000000000000000000000000000000028000000000000000000000000000000000000000000000000000000000000000000000000000000000028000000000000
310
00002800000000000000000000000028000000000000000000000000000000000028280000000000000000000000000000000000000000000000000000000000000000000000000000000000000000000000000000000000000000000000000000000000000000000000000000000000000000000000000000000000000000
310
00000000000000000000000000000000000000000000000000000000000000000000000000000000000000000000000028000000000000000000000000282800000000000000000000000000000000002800000000000000000000000000000000000000000000000000000000000000000000000000000000002800000000
310
00000000280000000000000000000000002800000000000000000000000000000000002828000000000000000000000000000000000000000000000000000000000000000000000000000000000000000000000000000000000000000000000000000000000000000000000000000000000000000000000000000000000000
310
00000000000000000000000000000000000000000000000000000000000000000000000000000000000000000000000000002800000000000000000000000028280000000000000000000000000000000000280000000000000000000000000000000000000000000000000000000000000000000000000000000000280000
310
00000000000028000000000000000000000000282800000000000000000000000000000000282800000000000000000000000000000000000000000000000000000000000000000000000000000000000000000000000000000000000000000000000000000000000000000000000000000000000000000000000000000000
310
00000000000000000000000000000000000000000000000000000000000000000000000000000000000000000000000000000000280000000000000000000000000028280000000000000000000000000000002828000000000000000000000000000000000000000000000000000000000000000000000000000000000028
310
00000000000000002800000000000000000000000028282800000000000000000000000000002828280000000000000000000000000000000000000000000000000000000000000000000000000000000000000000000000000000000000000000000000000000000000000000000000000000000000000000000000000000
310
00000000000000000000000000000000000000000000000000000000000000000000000000000000000000000000000000000000000028000000000000000000000000002828280000000000000000000000000028002800000000000000000000000000000000000000000000000000000000000000000000000000000000
310
00280000000000000000280000000000000000000000002800280000000000000000000000000000282800000000000000000000000000000000000000000000000000000000000000000000000000000000000000000000000000000000000000000000000000000000000000000000000000000000000000000000000000
310
00000000000000000000000000000000000000000000000000000000000000000000000000000000000000000000000000000000000000002800000000000000000000000000002828282828282828282828282828282828000000000000000000000000000000000000000000000000000000000000000000000000000000
310
00000028000000000000000028000000000000000000000000002828282828282828282828282828282828000000000000000000000000000000000000000000000000000000000000000000000000000000000000000000000000000000000000000000000000000000000000000000000000000000000000000000000000
310
00000000000000000000000000000000000000000000000000000000000000000000000000000000000000000000000000000000000000000000280000000000000000000000000000000000000028282828282828000000000000000000000000000000000000000000000000000000000000000000000000000000000000
310
00000000002800000000000000002800000000000000000000000000000000000028282828282828000000000000000000000000000000000000000000000000000000000000000000000000000000000000000000000000000000000000000000000000000000000000000000000000000000000000000000000000000000
310
00000000000000000000000000000000000000000000000000000000000000000000000000000000000000000000000000000000000000000000000028000000000000000000000000000000000000000000000000000000000000000000000000000000000000000000000000000000000000000000000000000000000000
310
00000000000000280000000000000000280000000000000000000000000000000000000000000000000000000000000000000000000000000000000000000000000000000000000000000000000000000000000000000000000000000000000000000000000000000000000000000000000000000000000000000000000000
310
00000000000000000000000000000000000000000000000000000000000000000000000000000000000000000000000000000000000000000000000000002800000000000000000000000000000000000000000000000000000000000000000000000000000000000000000000000000000000000000000000000000000000
310
00000000000000000028000000000000000028000000000000000000000000000000000000000000000000000000000000000000000000000000000000000000000000000000000000000000000000000000000000000000000000000000000000000000000000000000000000000000000000000000000000000000000000
310
00000000000000000000000000000000000000000000000000000000000000000000000000000000000000000000000000000000000000000000000000000000280000000000000000000000000000000000000000000000000000000000000000000000000000000000000000000000000000000000000000000000000000
310
00000000000000000000002800000000000000002800000000000000000000000000000000000000000000000000000000000000000000000000000000000000000000000000000000000000000000000000000000000000000000000000000000000000000000000000000000000000000000000000000000000000000000
310
00000000000000000000000000000000000000000000000000000000000000000000000000000000000000000000000000000000000000000000000000000000000028000000000000000000000000000000000000000000000000000000000000000000000000000000000000000000000000000000000000000000000000
310
00000000000000000000000000280000000000000000280000000000000000000000000000000000000000000000000000000000000000000000000000000000000000000000000000000000000000000000000000000000000000000000000000000000000000000000000000000000000000000000000000000000000000
310
00000000000000000000000000000000000000000000000000000000000000000000000000000000000000000000000000000000000000000000000000000000000000002800000000DCDCDCDCDCDCDCDCDCDCDCDCDCDCDCDCDCDCDCDCDCDCDCDCDCDCDCDCDCDCDCDCDCDCDCDCDCDCDC000000000000000000000000000000
310
00000000000000000000000000000028000000000000000028000000000000000000000000000000000000000000000000000000000000000000000000000000000000000000000000000000000000000000000000000000000000000000000000000000000000000000000000000000000000000000000000000000000000
310
000000000000000000000000000000000000000000000000000000000000000000000000000000000000000000000000000000000000000000000000000000000000000000002800000000DC000000000000002828282828282828282828282828282828282828000000000000000000DC0000002828282828282828282828
310
282828282828000000000000000000000028000000000000000028000000000000000000000000282828282828282828DCDCDCDCDCDCDCDCDCDCDCDCDCDCDCDCDCDCDCDCDC00002828282828282828282828282828282828000000000000000000000000000000000000000000000000000000000000000000000000000000
310
0000000000000000000000000000000000000000000000000000000000000000000000000000000000000000000000000000000000000000000000000000000000000000000000002800000000DC000000000000002800002800000000000000000000000028000028000000000000000000DC000028282828282828282828
310
28282828282828280000000000000000000000280000000000000000280000000000000000000000002828282828282828282828282828282828282828000000000000000000DC0000282828282828282828282828282828282800000000000000000000000000000000000000000000000000000000000000000000000000
310
00000000000000000000000000000000000000000000000000000000000000000000000000000000000000000000000000000000000000000000000000000000000000000000000000002800000000DC000000000000002800002800000000000000000000000028000028000000000000000000DC00002800000028000000
310
000000000000000000280000000000000000000000280000000000000000280000000000000000000000002800002800000000000000000000000028000028000000000000000000DC000028000000280000000000000000000000280000000000000000000000000000000000000000000000000000000000000000000000
310
000000000000000000000000000000000000000000000000000000000000000000000000000000000000000000000000000000000000000000000000000000000000000000000000000000002800000000DC000000000000002800002800000000000000000000000028000028000000000000000000DC0000280000002800
310
0000000000000000000000280000000000000000000000280000000000000000280000000000000000000000002800002800000000000000000000000028000028000000000000000000DC00002800000028000000000000000000000028000000000000000000000000000000000000000000000000000000000000000000
310
0000000000000000000000000000000000000000000000000000000000000000000000000000000000000000000000000000000000000000000000000000000000000000000000000000000000002800000000DC000000000000002800002800000000000000000000000028000028000000000000000000DC000028000000
310
28000000000000000000000000280000000000000000000000280000000000000000280000000000000000000000002800002800000000000000000000000028000028000000000000000000DC0000280000002800000000000000000000002800000000000000000000000000000000000000000000000000000000000000
310
00000000000000000000000000000000000000000000000000000000000000000000000000000000000000000000000000000000000000000000000000000000000000000000000000000000000000002800000000DC000000000000002800002800000000000000000000000028000028000000000000000000DC00002800
310
000028000000000000000000000000280000000000000000000000280000000000000000280000000000000000000000002800002800000000000000000000000028000028000000000000000000DC000028000000280000000000000000000000280000000000000000000000000000000000000000000000000000000000
310
00000000000000000000000000000000000000000000000000000000000000000000000000000000000000000000000000000000000000000000000000000000000000000000000000000000000000000000280000DCDCDC000000000000002800002800000000000000000000000028000028000000000000000000DC0000
310
2800000028000000000000000000000000280000000000000000000000280000000000000000280000000000000000000000002800002800000000000000000000000028000028000000000000000000DC00002800000028000000000000000000000028000000000000000000000000000000000000000000000000000000
310
000000000000000000000000000000000000000000000000000000000000000000000000000000000000000000000000000000000000000000000000000000000000000000000000000000000000000000000000280000DCDCDC000000000000002800002800000000000000000000000028000028000000000000000000DC
310
00002800000028000000000000000000000000280000000000000000000000280000000000000000280000000000000000000000002800002800000000000000000000000028000028000000000000000000DC0000280000002800000000000000000000002800000000000000000000000000000000000000000000000000
310
0000000000000000000000000000000000000000000000000000000000000000000000000000000000000000000000000000000000000000000000000000000000000000000000000000000000000000000000000000280000DCDCDC0000000000002828000028000000000000000000000000280000282800000000000000
310
00DC00002800000028000000000000000000000000280000000000000000000000280000000000000000280000000000000000000000002800002800000000000000000000000028000028000000000000000000DC000028000000280000000000000000000000280000000000000000000000000000000000000000000000
310
00000000000000000000000000000000000000000000000000000000000000000000000000000000000000000000000000000000000000000000000000000000000000000000000000000000000000000000000000000000280000DCDCDC000000000000282800002800000000000000000000000028000028002800000000
310
000000DC00002800000028000000000000000000282828280000000000000000000000280000000000000000280000000000000000000000002800002800000000000000000000000028000028000000000000000000DC00002800000028000000000000000000282828000000000000000000000000000000000000000000
310
00000000000000000000000000000000000000000000000000000000000000000000000000000000000000000000000000000000000000000000000000000000000000000000000000000000000000000000000000000000000028000000DCDC00000000002800280000280000000000000000000000002800002800280000
310
0000000000DC00002800000028000000000000000000280000280000000000000000000000280000000000000000280000000000000000000000282800002800000000000000000000000028000028280000000000000000DC0000280000002800000000000000000028002800000000000000000000000000000000000000
310
0000000000000000000000000000000000000000000000000000000000000000000000000000000000000000000000000000000000000000000000000000000000000000000000000000000000000000000000000000000000000000280000DCDCDC0000000028000028000028000000282828282828000000280000280000
310
28000000000000DC00002828000028000000000000000000280000280000000000000000000000280000000000000000280000000000000000000028002800002800000000000000000000000028000028002800000000000000DC000028000000280000000000000000002800280000000000000000000000000000000000
310
00000000000000000000000000000000000000000000000000000000000000000000000000000000000000000000000000000000000000000000000000000000000000000000000000000000000000000000000000000000000000000000280000DCDCDC000000002800002800002800282800000000000028280028000028
310
000000280000000000DC00002800282828000000000000000000280000280000000000000000000000280000000000000000280000000000000000002800002800002800000028282828282800000028000028000028000000000000DC00002800000028000000000000000000280028000000000000000000000000000000
310
0000000000000000000000000000000000000000000000000000000000000000000000000000000000000000000000000000000000000000000000000000000000000000000000000000000000000000000000000000000000000000000000002800000000DC00000028000000280000282800000000000000000000282800
310
0028000000002800000000DC00002800000028000000000000000000280000280000000000000000000000280000000000000000280000000000000000280000002800002800282800000000000028280028000028000000280000000000DC0000282828002800000000000000002800002800000000000000000000000000
310
00000000000000000000000000000000000000000000000000000000000000000000000000000000000000000000000000000000000000000000000000000000000000000000000000000000000000000000000000000000000000000000000000002800000000DC0000002800000028000000000000000000000000000000
310
00000028000000002800000000DC00002800000000000000000000000000280000280000000000000000000000280000000000000000280000000000000000280000002800002828000000000000000000002828000028000000280000000000DC000028000028280000000000000000280000280000000000000000000000
310
000000000000000000000000000000000000000000000000000000000000000000000000000000000000000000000000000000000000000000000000000000000000000000000000000000000000000000000000000000000000000000000000000000002800000000DC000028000000002800000000000000000000000000
310
000000000028000000002800000000DC00002800000000000000000000000000280000280000000000000000000000280000000000000000280000000000000028000000002800000000000000000000000000000000000028000000002800000000DC00002800000028000000000000000028000028000000000000000000
310
0000000000000000000000000000000000000000000000000000000000000000000000000000000000000000000000000000000000000000000000000000000000000000000000000000000000000000000000000000000000000000000000000000000000002800000000DC00002800000000280000000000000000000000
310
00000000000000280000000028000000DCDC00002800000000000000000000000000280000280000000000000000000000280000000000000000280000000000000028000000002800000000000000000000000000000000000028000000002800000000DC0000280000000000000000000000002800002800000000000000
310
00000000000000000000000000000000000000000000000000000000000000000000000000000000000000000000000000000000000000000000000000000000000000000000000000000000000000000000000000000000000000000000000000000000000000002800000000DC0000280000000028000000000000000000
310
000000000000000000280000000000280000DCDC0000280000000000000000000000000028000028000000000000000000000028000000000000000028000000000000002800000000280000000000000000000000000000000000002800000000280000DCDCDC000028000000000000000000000000280000280000000000
310
000000000000000000000000000000000000000000000000000000000000000000000000000000000000000000000000000000000000000000000000000000000000000000000000000000000000000000000000000000000000000000000000000000000000000000002800000000DC000028000000002800000000000000
310
0000000000000000000000280000000000280000DCDC0000280000000000000000000000000028000028000000000000000000000028000000000000000028000000000000280000000000280000000000000000000000000000000000002800000000002800DC00DC00002800000000000000000000000028000028000000
310
0000000000000000000000000000000000000000000000000000000000000000000000000000000000000000000000000000000000000000000000000000000000000000000000000000000000000000000000000000000000000000000000000000000000000000000000002800000000DC00280000000000280000000000
310
00000000000000000000000000280000000000280000DCDC0000280000000000000000000000000028000028000000000000000000000028000000000000000028000000000000280000000000280000000000000000000000000000000000002800000000002800DCDCDC0000280000000000000000000000002800002800
310
00000000000000000000000000000000000000000000000000000000000000000000000000000000000000000000000000000000000000000000000000000000000000000000000000000000000000000000000000000000000000000000000000000000000000000000000000002800000000DC0028000000000028000000
310
000000000000000000000000000000DCDCDCDCDC00DCDCDCDCDC0000280000000000000000000000000028000028000000000000000000000028000000000000000028000000000000280000000000280000000000000000000000000000000000002800000000002800DCDCDC000028000000000000000000000000280000
310
280000000000000000000000000000000000000000000000000000000000000000000000000000000000000000000000000000000000000000000000000000000000000000000000000000000000000000000000000000000000000000000000000000000000000000000000000000002800000000DCDCDCDCDCDCDCDCDCDC
310
DCDCDCDCDCDCDCDCDC0000000000000000DCDCDCDCDC00DCDCDC00DC00002800000000000000000000000000280000280000000000000000000000280000000000000000280000000000002800000000002800000000000000000000000000000000000028000000000028000000DC00002800000000000000000000000028
310
00002800000000000000000000000000000000000000000000000000000000000000000000000000000000000000000000000000000000000000000000000000000000000000000000000000000000000000000000000000000000000000000000000000000000000000000000000000000028000000000000280000000000
310
28000000000000000000000000000000000000280000DC00002800DC00DC00002800000000000000000000000000280000280000000000000000000000280000000000000000280000000000002800000000002800000000000000000000000000000000000028000000000028000000DC0000280000000000000000000000
310
00280000280000000000000000000000000000000000000000000000000000000000000000000000000000000000000000000000000000000000000000000000000000000000000000000000000000000000000000000000000000000000000000000000000000000000000000000000000000002800000000000028000000
310
0000280000000000000000000000000000000000002800DCDC00002800DC00DC00002800000000000000000000000000280000280000000000000000000000280000000000000000280000000000002800000000002800000000000000000000000000000000000028000000000028000000DC000028000000000000000000
310
00000028000028000000000000000000000000000000000000000000000000000000000000000000000000000000000000000000000000000000000000000000000000000000000000000000000000000000000000000000000000000000000000000000000000000000000000000000000000000000280000000000002800
310
00000000002800000000000000000000000000000000280000DCDC000028DCDC00DC00002800000000000000000000000000280000280000000000000000000000280000000000000000280000000000002800000000000028000000000000000000000000000000002800000000000028000000DC00002800000000000000
310
00000000002800002800000000000000000000000000000000000000000000000000000000000000000000000000000000000000000000000000000000000000000000000000000000000000000000000000000000000000000000000000000000000000000000000000000000000000000000000000000028000000000000
310
00280000000000280000000000000000000000000000000028000000DC0028DCDCDC00DC00002800000000000000000000000000280000280000000000000000000000280000000000000000280000000000002800000000000028000000000000000000000000000000002800000000000028000000DC0000280000000000
310
00000000000000280000280000000000000000000000000000000000000000000000000000000000000000000000000000000000000000000000000000000000000000000000000000000000000000000000000000000000000000000000000000000000000000000000000000000000000000000000000000002800000000
310
00000028000000000028000000000000000000000000000000002800000000002800000000DC00002800000000000000000000000000280000280000000000000000000000280000000000000000280000000000000028000000000028000000000000000000000000000000002800000000002800000000DC000028000000
310
00000000000000000028000028000000000000000000000000000000000000000000000000000000000000000000000000000000000000000000000000000000000000000000000000000000000000000000000000000000000000000000000000000000000000000000000000000000000000000000000000000000280000
310
000000000028000000000000282800000000000000000000000000280000000000002800000000DC00000028000000000000000000000000280000280000000000000000000000280000000000000000280000000000000028000000000000282800000000000000000000000000280000000000002800000000DC00000028
310
00000000000000000000002800002800000000000000000000000000000000000000000000000000000000000000000000000000000000000000000000000000000000000000000000000000000000000000000000000000000000000000000000000000000000000000000000000000000000000000000000000000000028
310
0000000000000000280000000000000028000000000000000000000028000000000000280000000000DC00000028000000000000000000000000280000280000000000000000000000280000000000000000280000000000000000280000000000000028000000000000000000002828000000000000280000000000DC0000
310
00280000000000000000000000280000280000000000000000000000000000000000000000000000000000000000000000000000000000000000000000000000000000000000000000000000000000000000000000000000000000000000000000000000000000000000000000000000000000000000000000000000000000
310
00280000000000000000002800000000000000282828000000000028282800000000000000280000000000DC00000000280000000000000000000000280000280000000000000000000000280000000000000000280000000000000000280000000000000000282800000000002828280000000000000000280000000000DC
310
00000000280000000000000000000028000028000000000000000000000000000000000000000000000000000000000000000000000000000000000000000000000000000000000000000000000000000000000000000000000000000000000000000000000000000000000000000000000000000000000000000000000000
310
000000280000000000000000002800000000000000000000282828282800000000000000000028000000000000DC000000000028282828282828282828282800002800000000000000000000002800000000000000002800000000000000000028000000000000000000282828282800000000000000000000280000000000
310
00DC0000000000282828282828282828282800002800000000000000000000000000000000000000000000000000000000000000000000000000000000000000000000000000000000000000000000000000000000000000000000000000000000000000000000000000000000000000000000000000000000000000000000
310
0000000000280000000000000000000028000000000000000000000000000000000000000000000028000000000000DC00000000000000000000000000000000280000280000000000000000000000280000000000000000280000000000000000000028000000000000000000000000000000000000000000002800000000
310
000000DC000000000000000000000000000000280000280000000000000000000000000000000000000000000000000000000000000000000000000000000000000000000000000000000000000000000000000000000000000000000000000000000000000000000000000000000000000000000000000000000000000000
310
00000000000000280000000000000000000000280000000000000000000000000000000000000000002800000000000000DC0000000000000000000000000000000028000028000000000000000000000028000000000000000028000000000000000000000028000000000000000000000000000000000000000028000000
310
0000000000DC00000000000000000000000000000028000028000000000000000000000000000000000000000000000000000000000000000000000000000000000000000000000000000000000000000000000000000000000000000000000000000000000000000000000000000000000000000000000000000000000000
310
000000000000000000280000000000000000000000002828000000000000000000000000000000000028280000000000000000DC000000000000000000000000000000002800002800000000000000000000002800000000000000002800000000000000000000000028000000000000000000000000000000000000280000
310
00000000000000DC0000000000000000000000000000000028002800000000000000000000000000000000000000000000000000000000000000000000000000000000000000000000000000000000000000000000000000000000000000000000000000000000000000000000000000000000000000000000000000000000
310
0000000000000000000000280000000000000000000000000000282800000000002828280000000000282800000000000000000000DC00000000000000000000000000000000280000280000000000000000000000280000000000000000280000000000000000000000000028280000000000002828000000000000282800
310
000000000000000000DC000000000000000000000000000000002800280000000000000000000000000000000000000000000000000000000000000000000000000000000000000000000000000000000000000000000000000000000000000000000000000000000000000000000000000000000000000000000000000000
310
00000000000000000000000000280000000000000000000000000000000028282800002800280000282828000000000000000000000000DC0000000000000000000000000000000028000028000000000000000000000028000000000000000028000000000000000000000000000000282800000028000028000028282800
310
0000000000000000000000DC00000000000000000000000000000000280028000000000000000000000000000000000000000000000000000000000000000000000000000000000000000000000000000000000000000000000000000000000000000000000000000000000000000000000000000000000000000000000000
310
000000000000000000000000000000280000000000000000000000000000000000000028282828282828DCDCDCDCDCDCDCDCDCDCDCDCDCDCDCDCDC00000000000000000000000000000028282828000000000000000000000028000000000000000028000000000000000000000000000000000028282828DCDCDCDCDCDCDC
310
DCDCDCDCDCDCDCDCDCDCDCDCDCDC0000000000000000000000000000000028282800000000000000000000000000000000000000000000000000000000000000000000000000000000000000000000000000000000000000000000000000000000000000000000000000000000000000000000000000000000000000000000
310
00000000000000000000000000000000002800000000000000000000000000000000000000000000000000000000000000000000000000000000000000000000000000000000000000000000000000000000000000000000000000280000000000000000280000000000000000000000000000000000000000000000000000
310
00000000000000000000000000000000000000000000000000000000000000000000000000000000000000000000000000000000000000000000000000000000000000000000000000000000000000000000000000000000000000000000000000000000000000000000000000000000000000000000000000000000000000
310
00000000000000000000000000000000000000280000000000000000000000000000000000000000000000000000000000000000000000000000000000000000000000000000000000000000000000000000000000000000000000000028000000000000000028000000000000000000000000000000000000000000000000
310
00000000000000000000000000000000000000000000000000000000000000000000000000000000000000000000000000000000000000000000000000000000000000000000000000000000000000000000000000000000000000000000000000000000000000000000000000000000000000000000000000000000000000
310
00000000000000000000000000000000000000000028000000000000000000000000000000000000000000000000000000000000000000000000000000000000000000000000000000000000000000000000000000000000000000000000002800000000000000002800000000000000000000000000000000000000000000
310
00000000000000000000000000000000000000000000000000000000000000000000000000000000000000000000000000000000000000000000000000000000000000000000000000000000000000000000000000000000000000000000000000000000000000000000000000000000000000000000000000000000000000
310
00000000000000000000000000000000000000000000002800000000000000000000000000000000000000000000000000000000000000000000000000000000000000000000000000000000000000000000000000000000000000000000000000280000000000000000280000000000000000000000000000000000000000
310
00000000000000000000000000000000000000000000000000000000000000000000000000000000000000000000000000000000000000000000000000000000000000000000000000000000000000000000000000000000000000000000000000000000000000000000000000000000000000000000000000000000000000
310
00000000000000000000000000000000000000000000000000280000000000000000000000000000000000000000000000000000000000000000000000000000000000000000000000000000000000000000000000000000000000000000000000000028000000000000000028000000000000000000000000000000000000
310
00000000000000000000000000000000000000000000000000000000000000000000000000000000000000000000000000000000000000000000000000000000000000000000000000000000000000000000000000000000000000000000000000000000000000000000000000000000000000000000000000000000000000
310
00000000000000000000000000000000000000000000000000000028000000000028282828282828280000002828282800000000000000000000000000000000000000000000000000000000000000000000000000000000000000000000000000000000002800000000000000002800000000002828282828282828000028
310
28282800000000000000000000000000000000000000000000000000000000000000000000000000000000000000000000000000000000000000000000000000000000000000000000000000000000000000000000000000000000000000000000000000000000000000000000000000000000000000000000000000000000
310
00000000000000000000000000000000000000000000000000000000002800000000002828282828282828282828282828280000000000000000000000000000000000000000000000000000000000000000000000000000000000000000000000000000000000280000000000000000280000000000282828282828282828
310
28282828282800000000000000000000000000000000000000000000000000000000000000000000000000000000000000000000000000000000000000000000000000000000000000000000000000000000000000000000000000000000000000000000000000000000000000000000000000000000000000000000000000
310
00000000000000000000000000000000000000000000000000000000000000280000000000280028282828002800000028282828000000000000000000000000000000000000000000000000000000000000000000000000000000000000000000000000000000000028000000000000000028000000000028002828282800
310
28000028282828000000000000000000000000000000000000000000000000000000000000000000000000000000000000000000000000000000000000000000000000000000000000000000000000000000000000000000000000000000000000000000000000000000000000000000000000000000000000000000000000
310
00000000000000000000000000000000000000000000000000000000000000000028000000000000000000000000000000000000000000000000000000000000000000000000000000000000000000000000000000000000000000000000000000000000000000000000002800000000000000002800000000000000000000
310
00000000000000000000000000000000000000000000000000000000000000000000000000000000000000000000000000000000000000000000000000000000000000000000000000000000000000000000000000000000000000000000000000000000000000000000000000000000000000000000000000000000000000
310
00000000000000000000000000000000000000000000000000000000000000000000002800000000000000000000000000000000000000000000000000000000000000000000000000000000000000000000000000000000000000000000000000000000000000000000000000280000000000000000280000000000000000
310
00000000000000000000000000000000000000000000000000000000000000000000000000000000000000000000000000000000000000000000000000000000000000000000000000000000000000000000000000000000000000000000000000000000000000000000000000000000000000000000000000000000000000
310
00000000000000000000000000000000000000000000000000000000000000000000000000280000000000000000000000000000000000000000000000000000000000000000000000000000000000000000000000000000000000000000000000000000000000000000000000000028000000000000000028000000000000
310
00000000000000000000000000000000000000000000000000000000000000000000000000000000000000000000000000000000000000000000000000000000000000000000000000000000000000000000000000000000000000000000000000000000000000000000000000000000000000000000000000000000000000
310
00000000000000000000000000000000000000000000000000000000000000000000000000000028000000000000000000000000000000000000000000000000000000000000000000000000000000000000000000000000000000000000000000000000000000000000000000000000002800000000000000002800000000
310
00000000000000000000000000000000000000000000000000000000000000000000000000000000000000000000000000000000000000000000000000000000000000000000000000000000000000000000000000000000000000000000000000000000000000000000000000000000000000000000000000000000000000
310
00000000000000000000000000000000000000000000000000000000000000000000000000000000002828282828282828282828282828282828282828282828282828282828282828282828282828282828282828282828282828282828282828282828282828282828282828282828282828280000000000000000282828
310
28282828282828282828282828282828282828282828282828282828282828282828282828282828282828282828282828282828282828282828280000000000000000000000000000000000000000000000000000000000000000000000000000000000000000000000000000000000000000000000000000000000000000
310
00000000000000000000000000000000000000000000000000000000000000000000000000000000000000280000000000000000000000000000000000000000000000000000000000000000000000000000000000000000000000000000000000000000000000000000000000000000000000000028000000000000000028
310
00000000000000000000000000000000000000000000000000000000000000000000000000000000000000000000000000000000000000000000000000000000000000000000000000000000000000000000000000000000000000000000000000000000000000000000000000000000000000000000000000000000000000
310
00000000000000000000000000000000000000000000000000000000000000000000000000000000000000000028000000000000000000000000000000000000000000000000000000000000000000000000000000000000000000000000000000000000000000000000000000000000000000000000002800000000000000
310
00280000000000000000000000000000000000000000000000000000000000000000000000000000000000000000000000000000000000000000000000000000000000000000000000000000000000000000000000000000000000000000000000000000000000000000000000000000000000000000000000000000000000
310
00000000000000000000000000000000000000000000000000000000000000000000000000000000000000000000002800000000000000000000000000000000000000000000000000000000000000000000000000000000000000000000000000000000000000000000000000000000000000000000000000280000000000
310
00000028000000000000000000000000000000000000000000000000000000000000000000000000000000000000000000000000000000000000000000000000000000000000000000000000000000000000000000000000000000000000000000000000000000000000000000000000000000000000000000000000000000
310
00000000000000000000000000000000000000000000000000000000000000000000000000000000000000000000000000280000000000000000000000000000000000000000000000000000000000000000000000000000000000000000000000000000000000000000000000000000000000000000000000000028000000
310
00000000002800000000000000000000000000000000000000000000000000000000000000000000000000000000000000000000000000000000000000000000000000000000000000000000000000000000000000000000000000000000000000000000000000000000000000000000000000000000000000000000000000
310
00000000000000000000000000000000000000000000000000000000000000000000000000000000000000000000000000000028000000000000282828282828282828282828282828282828282828282828282828282828282828000000000000000000000000000000000000000000000000000000000000000000002800
310
00000000000000280000000000002828282828282828282828282828282828282828282828282828282828282828000000000000000000000000000000000000000000000000000000000000000000000000000000000000000000000000000000000000000000000000000000000000000000000000000000000000000000
310
00000000000000000000000000000000000000000000000000000000000000000000000000000000000000000000000000000000002800000000000028000000000000282800000000000000000000000000000028000000000000002800000000000000000000000000000000000000000000000000000000000000000000
310
28000000000000000028000000000000280000000000002828000000000000000000000000000000280000000000002800000000000000000000000000000000000000000000000000000000000000000000000000000000000000000000000000000000000000000000000000000000000000000000000000000000000000
310
00000000000000000000000000000000000000000000000000000000000000000000000000000000000000000000000000000000000000280000000000002828282800000028280000000000000000000000000000002800000028282828000000000000000000000000000000000000000000000000000000000000000000
310
00002800000000000000002800000000000028282828000000282800000000000000000000000000000028000000282828280000000000000000000000000000000000000000000000000000000000000000000000000000000000000000000000000000000000000000000000000000000000000000000000000000000000
310
00000000000000000000000000000000000000000000000000000000000000000000000000000000000000000000000000000000000000000028000000000000000000002828282828000000000000000000000000000000282828280000000000000000000000000000000000000000000000000000000000000000000000
310
00000000280000000000000000280000000000000000000028282828280000000000000000000000000000002828282800000000000000000000000000000000000000000000000000000000000000000000000000000000000000000000000000000000000000000000000000000000000000000000000000000000000000
310
00000000000000000000000000000000000000000000000000000000000000000000000000000000000000000000000000000000000000000000002800000000000000000000000000282800000000000000000000000000000028000000000000000000000000000000000000000000000000000000000000000000000000
310
00000000000028000000000000000028000000000000000000000000002828000000000000000000000000000000280000000000000000000000000000000000000000000000000000000000000000000000000000000000000000000000000000000000000000000000000000000000000000000000000000000000000000
310
00000000000000000000000000000000000000000000000000000000000000000000000000000000000000000000000000000000000000000000000000280000000000000000000000000028280000000000000000000000000000002800000000000000000000000000000000000000000000000000000000000000000000
310
00000000000000002800000000000000002800000000000000000000000000282800000000000000000000000000000028000000000000000000000000000000000000000000000000000000000000000000000000000000000000000000000000000000000000000000000000000000000000000000000000000000000000
310
00000000000000000000000000000000000000000000000000000000000000000000000000000000000000000000000000000000000000000000000000000028000000000000000000000000002828000000000000000000000000000000280000000000000000000000000000000000000000000000000000000000000000
310
00000000000000000000280000000000000000280000000000000000000000000028280000000000000000000000000000002800000000000000000000000000000000000000000000000000000000000000000000000000000000000000000000000000000000000000000000000000000000000000000000000000000000
310
00000000000000000000000000000000000000000000000000000000000000000000000000000000000000000000000000000000000000000000000000000000002800000000000000000000000000282800000000000000000000000000000028000000000000000000000000000000000000000000000000000000000000
310
00000000000000000000000028000000000000000028000000000000000000000000002828000000000000000000000000000000280000000000000000000000000000000000000000000000000000000000000000000000000000000000000000000000000000000000000000000000000000000000000000000000000000
310
00000000000000000000000000000000000000000000000000000000000000000000000000000000000000000000000000000000000000000000000000000000000000280000000000000000000000000028280000000000000000000000000000002800000000000000000000000000000000000000000000000000000000
310
00000000000000000000000000002800000000000000002800000000000000000000000000282800000000000000000000000000000028000000000000000000000000000000000000000000000000000000000000000000000000000000000000000000000000000000000000000000000000000000000000000000000000
310
00000000000000000000000000000000000000000000000000000000000000000000000000000000000000000000000000000000000000000000000000000000000000000028000000000000000000000000002828000000000000000000000000000000280000000000000000000000000000000000000000000000000000
310
00000000000000000000000000000000280000000000000000280000000000000000000000000028280000000000000000000000000000002800000000000000000000000000000000000000000000000000000000000000000000000000000000000000000000000000000000000000000000000000000000000000000000
310
00000000000000000000000000000000000000000000000000000000000000000000000000000000000000000000000000000000000000000000000000000000000000000000002800000000000000000000000000282800000000000000000000000000000028000000000000000000000000000000000000000000000000
310
00000000000000000000000000000000000028000000000000000028000000000000000000000000002828000000000000000000000000000000280000000000000000000000000000000000000000000000000000000000000000000000000000000000000000000000000000000000000000000000000000000000000000
310
00000000000000000000000000000000000000000000000000000000000000000000000000000000000000000000000000000000000000000000000000000000000000000000000000280000000000000000000000000028280000000000000000000000000000002800000000000000000000000000000000000000000000
310
00000000000000000000000000000000000000002800000000000000002800000000000000000000000000282800000000000000000000000000000028000000000000000000000000000000000000000000000000000000000000000000000000000000000000000000000000000000000000000000000000000000000000
310
00000000000000000000000000000000000000000000000000000000000000000000000000000000000000000000000000000000000000000000000000000000000000000000000000000028000000000000000000000000002828000000000000000000000000000000280000000000000000000000000000000000000000
310
00000000000000000000000000000000000000000000280000000000000000280000000000000000000000000028280000000000000000000000000000282800000000000000000000000000000000000000000000000000000000000000000000000000000000000000000000000000000000000000000000000000000000
310
00000000000000000000000000000000000000000000000000000000000000000000000000000000000000000000000000000000000000000000000000000000000000000000000000000000002800000000000000000000000000002828000000000000000000000000002828000000000000000000000000000000000000
310
00000000000000000000000000000000000000000000000028000000000000000028000000000000000000000000000028280000000000000000000000000028280000000000000000000000000000000000000000000000000000000000000000000000000000000000000000000000000000000000000000000000000000
310
00000000000000000000000000000000000000000000000000000000000000000000000000000000000000000000000000000000000000000000000000000000000000000000000000000000000000280000000000000000000000000000282828282828282828282828282828282800000000000000000000000000000000
310
00000000000000000000000000000000000000000000000000002800000000000000002800000000000000000000000000002828282828282828282828282828282800000000000000000000000000000000000000000000000000000000000000000000000000000000000000000000000000000000000000000000000000
310
00000000000000000000000000000000000000000000000000000000000000000000000000000000000000000000000000000000000000000000000000000000000000000000000000000000000000000028000000000000000000000000000000282828282828282828282828282828000000000000000000000000000000
310
00000000000000000000000000000000000000000000000000000000280000000000000000280000000000000000000000000000002828282828282828282828282828000000000000000000000000000000000000000000000000000000000000000000000000000000000000000000000000000000000000000000000000
310
00000000000000000000000000000000000000000000000000000000000000000000000000000000000000000000000000000000000000000000000000000000000000000000000000000000000000000000002800000000000000000000000000000000000000000000000000000000000000000000000000000000000000
310
00000000000000000000000000000000000000000000000000000000000028000000000000000028000000000000000000000000000000000000000000000000000000000000000000000000000000000000000000000000000000000000000000000000000000000000000000000000000000000000000000000000000000
310
00000000000000000000000000000000000000000000000000000000000000000000000000000000000000000000000000000000000000000000000000000000000000000000000000000000000000000000000000280000000000000000000000000000000000000000000000000000000000000000000000000000000000
310
00000000000000000000000000000000000000000000000000000000000000002800000000000000002800000000000000000000000000000000000000000000000000000000000000000000000000000000000000000000000000000000000000000000000000000000000000000000000000000000000000000000000000
310
00000000000000000000000000000000000000000000000000000000000000000000000000000000000000000000000000000000000000000000000000000000000000000000000000000000000000000000000000000028000000000000000000000000000000000000000000000000000000000000000000000000000000
310
00000000000000000000000000000000000000000000000000000000000000000000280000000000000000280000000000000000000000000000000000000000000000000000000000000000000000000000000000000000000000000000000000000000000000000000000000000000000000000000000000000000000000
310
00000000000000000000000000000000000000000000000000000000000000000000000000000000000000000000000000000000000000000000000000000000000000000000000000000000000000000000000000000000002800000000000000000000000000000000000000000000000000000000000000000000000000
310
00000000000000000000000000000000000000000000000000000000000000000000000028000000000000000028000000000000000000000000000000000000000000000000000000000000000000000000000000000000000000000000000000000000000000000000000000000000000000000000000000000000000000
310
00000000000000000000000000000000000000000000000000000000000000000000000000000000000000000000000000000000000000000000000000000000000000000000000000000000000000000000000000000000000000280000000000000000000000000000000000000000000000000000000000000000000000
310
00000000000000000000000000000000000000000000000000000000000000000000000000002800000000000000002800000000000000000000000000000000000000000000000000000000000000000000000000000000000000000000000000000000000000000000000000000000000000000000000000000000000000
310
000000000000000000000000000000000000000000000000000000000000000000000000000000000000000000000000000000000000000000000000000000000000000000000000000000000000000000000000000000000000000000280000DCDCDCDCDCDCDCDCDCDCDCDC28282828282828282828282828282828DCDCDC
310
DCDCDCDCDCDCDCDCDCDCDC0000002828282828282828282828282828282800000000000000000000280000000000000000280000000000000000000000000000000000000000000000000000000000000000000000000000000000000000000000000000000000000000000000000000000000000000000000000000000000
310
0000000000000000000000000000000000000000000000000000000000000000000000000000000000000000000000000000000000000000000000000000000000000000000000000000000000000000000000000000000000000000000000280000DC00000000000000000000282828282828282828282828282828282828
310
000000000000000000000000DC0000002828282828282828282828282828282800000000000000000000280000000000000000280000DCDCDCDCDCDCDCDCDCDCDCDCDCDCDCDCDCDCDCDCDCDCDCDCDCDCDCDCDCDCDCDCDCDCDCDCDCDCDCDCDCDC00000028282828282828282828282828280000000000000000000000000000
310
00000000000000000000000000000000000000000000000000000000000000000000000000000000000000000000000000000000000000000000000000000000000000000000000000000000000000000000000000000000000000000000000000280000DC0000000000000000000028000028000000000000000000000028
310
0028000000000000000000000000DC0000002800280000000000000000000000002800000000000000000000280000000000000000280000DC00000000000000000000282828282828282828282828282828282828000000000000000000000000DC0000282828282828282828282828282828000000000000000000000000
310
000000000000000000000000000000000000000000000000000000000000000000000000000000000000000000000000000000000000000000000000000000000000000000000000000000000000000000000000000000000000000000000000000000280000DC000000000000000000002800002800000000000000000000
310
00280028000000000000000000000000DC0000002800280000000000000000000000002800000000000000000000280000000000000000280000DC00000000000000000000280000280000000000000000000028000028000000000000000000000000DC000028000028000000000000000000000000000000000000000000
310
0000000000000000000000000000000000000000000000000000000000000000000000000000000000000000000000000000000000000000000000000000000000000000000000000000000000000000000000000000000000000000000000000000000000280000DC00000000000000000000280000280000000000000000
310
000000280028000000000000000000000000DC0000002800280000000000000000000000002800000000000000000000280000000000000000280000DC00000000000000000000280000280000000000000000000028000028000000000000000000000000DC0000280000280000000000000000000000
  0
XRECORD
  5
C64
102
{ACAD_REACTORS
330
C62
102
}
330
C62
100
AcDbXrecord
280
     1
270
     1
271
     1
  0
XRECORD
  5
C63
102
{ACAD_REACTORS
330
C62
102
}
330
C62
100
AcDbXrecord
280
     1
270
     1
271
     1
  0
XRECORD
  5
C67
102
{ACAD_REACTORS
330
C62
102
}
330
C62
100
AcDbXrecord
280
     1
270
     1
271
     1
  0
XRECORD
  5
C66
102
{ACAD_REACTORS
330
C62
102
}
330
C62
100
AcDbXrecord
280
     1
270
     1
271
     1
  0
XRECORD
  5
C68
102
{ACAD_REACTORS
330
C62
102
}
330
C62
100
AcDbXrecord
280
     1
270
     1
271
     1
  0
XRECORD
  5
C65
102
{ACAD_REACTORS
330
C62
102
}
330
C62
100
AcDbXrecord
280
     1
270
     1
271
     1
  0
XRECORD
  5
C5C
102
{ACAD_REACTORS
330
C5A
102
}
330
C5A
100
AcDbXrecord
280
     1
270
     1
271
     1
  0
XRECORD
  5
C5B
102
{ACAD_REACTORS
330
C5A
102
}
330
C5A
100
AcDbXrecord
280
     1
270
     1
271
     1
  0
XRECORD
  5
C5F
102
{ACAD_REACTORS
330
C5A
102
}
330
C5A
100
AcDbXrecord
280
     1
270
     1
271
     1
  0
XRECORD
  5
C5E
102
{ACAD_REACTORS
330
C5A
102
}
330
C5A
100
AcDbXrecord
280
     1
270
     1
271
     1
  0
XRECORD
  5
C60
102
{ACAD_REACTORS
330
C5A
102
}
330
C5A
100
AcDbXrecord
280
     1
270
     1
271
     1
  0
XRECORD
  5
C5D
102
{ACAD_REACTORS
330
C5A
102
}
330
C5A
100
AcDbXrecord
280
     1
270
     1
271
     1
  0
XRECORD
  5
C6C
102
{ACAD_REACTORS
330
C6A
102
}
330
C6A
100
AcDbXrecord
280
     1
270
     1
271
     1
  0
XRECORD
  5
C6B
102
{ACAD_REACTORS
330
C6A
102
}
330
C6A
100
AcDbXrecord
280
     1
270
     1
271
     1
  0
XRECORD
  5
C6F
102
{ACAD_REACTORS
330
C6A
102
}
330
C6A
100
AcDbXrecord
280
     1
270
     1
271
     1
  0
XRECORD
  5
C6E
102
{ACAD_REACTORS
330
C6A
102
}
330
C6A
100
AcDbXrecord
280
     1
270
     1
271
     1
  0
XRECORD
  5
C70
102
{ACAD_REACTORS
330
C6A
102
}
330
C6A
100
AcDbXrecord
280
     1
270
     1
271
     1
  0
XRECORD
  5
C6D
102
{ACAD_REACTORS
330
C6A
102
}
330
C6A
100
AcDbXrecord
280
     1
270
     1
271
     1
  0
CELLSTYLEMAP
  5
3199
102
{ACAD_REACTORS
330
17D2
102
}
330
17D2
100
AcDbCellStyleMap
 90
        3
300
CELLSTYLE
  1
TABLEFORMAT_BEGIN
 90
        5
170
     1
 91
        0
 92
    32768
 62
   257
 93
        1
300
CONTENTFORMAT
  1
CONTENTFORMAT_BEGIN
 90
        0
 91
        0
 92
      512
 93
        0
300

 40
0.0
140
1.0
 94
        5
 62
     0
340
2D3
144
0.25
309
CONTENTFORMAT_END
171
     0
 94
        0
309
TABLEFORMAT_END
  1
CELLSTYLE_BEGIN
 90
        1
 91
        1
300
_TITLE
309
CELLSTYLE_END
300
CELLSTYLE
  1
TABLEFORMAT_BEGIN
 90
        5
170
     1
 91
        0
 92
        0
 62
   257
 93
        1
300
CONTENTFORMAT
  1
CONTENTFORMAT_BEGIN
 90
        0
 91
        0
 92
      512
 93
        0
300

 40
0.0
140
1.0
 94
        5
 62
     0
340
2D3
144
0.18
309
CONTENTFORMAT_END
171
     0
 94
        0
309
TABLEFORMAT_END
  1
CELLSTYLE_BEGIN
 90
        2
 91
        1
300
_HEADER
309
CELLSTYLE_END
300
CELLSTYLE
  1
TABLEFORMAT_BEGIN
 90
        5
170
     1
 91
        0
 92
        0
 62
   257
 93
        1
300
CONTENTFORMAT
  1
CONTENTFORMAT_BEGIN
 90
        0
 91
        0
 92
      512
 93
        0
300

 40
0.0
140
1.0
 94
        2
 62
     0
340
2D3
144
0.18
309
CONTENTFORMAT_END
171
     0
 94
        0
309
TABLEFORMAT_END
  1
CELLSTYLE_BEGIN
 90
        3
 91
        2
300
_DATA
309
CELLSTYLE_END
  0
ENDSEC
  0
EOF
