  0
SECTION
  2
HEADER
  9
$ACADVER
  1
AC1015
  9
$ACADMAINTVER
 70
    14
  9
$DWGCODEPAGE
  3
ANSI_932
  9
$INSBASE
 10
0.0
 20
0.0
 30
0.0
  9
$EXTMIN
 10
37.36842050492986
 20
40.98617570626027
 30
0.0
  9
$EXTMAX
 10
494.8684205049296
 20
282.1871967989068
 30
0.0
  9
$LIMMIN
 10
0.0
 20
0.0
  9
$LIMMAX
 10
420.0
 20
297.0
  9
$ORTHOMODE
 70
     1
  9
$REGENMODE
 70
     1
  9
$FILLMODE
 70
     1
  9
$QTEXTMODE
 70
     0
  9
$MIRRTEXT
 70
     1
  9
$LTSCALE
 40
1.0
  9
$ATTMODE
 70
     1
  9
$TEXTSIZE
 40
2.5
  9
$TRACEWID
 40
1.0
  9
$TEXTSTYLE
  7
STANDARD
  9
$CLAYER
  8
2寸法線
  9
$CELTYPE
  6
ByLayer
  9
$CECOLOR
 62
   256
  9
$CELTSCALE
 40
1.0
  9
$DISPSILH
 70
     0
  9
$DIMSCALE
 40
1.0
  9
$DIMASZ
 40
2.5
  9
$DIMEXO
 40
0.625
  9
$DIMDLI
 40
3.75
  9
$DIMRND
 40
0.0
  9
$DIMDLE
 40
0.0
  9
$DIMEXE
 40
1.25
  9
$DIMTP
 40
0.0
  9
$DIMTM
 40
0.0
  9
$DIMTXT
 40
2.5
  9
$DIMCEN
 40
2.5
  9
$DIMTSZ
 40
0.0
  9
$DIMTOL
 70
     0
  9
$DIMLIM
 70
     0
  9
$DIMTIH
 70
     0
  9
$DIMTOH
 70
     0
  9
$DIMSE1
 70
     0
  9
$DIMSE2
 70
     0
  9
$DIMTAD
 70
     1
  9
$DIMZIN
 70
     8
  9
$DIMBLK
  1

  9
$DIMASO
 70
     1
  9
$DIMSHO
 70
     1
  9
$DIMPOST
  1

  9
$DIMAPOST
  1

  9
$DIMALT
 70
     0
  9
$DIMALTD
 70
     3
  9
$DIMALTF
 40
0.03937007874016
  9
$DIMLFAC
 40
1.0
  9
$DIMTOFL
 70
     1
  9
$DIMTVP
 40
0.0
  9
$DIMTIX
 70
     0
  9
$DIMSOXD
 70
     0
  9
$DIMSAH
 70
     0
  9
$DIMBLK1
  1

  9
$DIMBLK2
  1

  9
$DIMSTYLE
  2
ISO-25
  9
$DIMCLRD
 70
     0
  9
$DIMCLRE
 70
     0
  9
$DIMCLRT
 70
     0
  9
$DIMTFAC
 40
1.0
  9
$DIMGAP
 40
0.625
  9
$DIMJUST
 70
     0
  9
$DIMSD1
 70
     0
  9
$DIMSD2
 70
     0
  9
$DIMTOLJ
 70
     1
  9
$DIMTZIN
 70
     0
  9
$DIMALTZ
 70
     0
  9
$DIMALTTZ
 70
     0
  9
$DIMUPT
 70
     0
  9
$DIMDEC
 70
     4
  9
$DIMTDEC
 70
     4
  9
$DIMALTU
 70
     2
  9
$DIMALTTD
 70
     2
  9
$DIMTXSTY
  7
STANDARD
  9
$DIMAUNIT
 70
     0
  9
$DIMADEC
 70
     0
  9
$DIMALTRND
 40
0.0
  9
$DIMAZIN
 70
     0
  9
$DIMDSEP
 70
    46
  9
$DIMATFIT
 70
     3
  9
$DIMFRAC
 70
     0
  9
$DIMLDRBLK
  1

  9
$DIMLUNIT
 70
     2
  9
$DIMLWD
 70
    -2
  9
$DIMLWE
 70
    -2
  9
$DIMTMOVE
 70
     0
  9
$LUNITS
 70
     2
  9
$LUPREC
 70
     4
  9
$SKETCHINC
 40
1.0
  9
$FILLETRAD
 40
0.0
  9
$AUNITS
 70
     0
  9
$AUPREC
 70
     0
  9
$MENU
  1
.
  9
$ELEVATION
 40
0.0
  9
$PELEVATION
 40
0.0
  9
$THICKNESS
 40
0.0
  9
$LIMCHECK
 70
     0
  9
$CHAMFERA
 40
10.0
  9
$CHAMFERB
 40
10.0
  9
$CHAMFERC
 40
0.0
  9
$CHAMFERD
 40
0.0
  9
$SKPOLY
 70
     0
  9
$TDCREATE
 40
2452263.783811481
  9
$TDUCREATE
 40
2452263.408811481
  9
$TDUPDATE
 40
2454258.405533854
  9
$TDUUPDATE
 40
2454258.030533854
  9
$TDINDWG
 40
0.6299604051
  9
$TDUSRTIMER
 40
0.6299588542
  9
$USRTIMER
 70
     1
  9
$ANGBASE
 50
0.0
  9
$ANGDIR
 70
     0
  9
$PDMODE
 70
     0
  9
$PDSIZE
 40
0.0
  9
$PLINEWID
 40
0.0
  9
$SPLFRAME
 70
     0
  9
$SPLINETYPE
 70
     6
  9
$SPLINESEGS
 70
     8
  9
$HANDSEED
  5
445
  9
$SURFTAB1
 70
     6
  9
$SURFTAB2
 70
     6
  9
$SURFTYPE
 70
     6
  9
$SURFU
 70
     6
  9
$SURFV
 70
     6
  9
$UCSBASE
  2

  9
$UCSNAME
  2

  9
$UCSORG
 10
0.0
 20
0.0
 30
0.0
  9
$UCSXDIR
 10
1.0
 20
0.0
 30
0.0
  9
$UCSYDIR
 10
0.0
 20
1.0
 30
0.0
  9
$UCSORTHOREF
  2

  9
$UCSORTHOVIEW
 70
     0
  9
$UCSORGTOP
 10
0.0
 20
0.0
 30
0.0
  9
$UCSORGBOTTOM
 10
0.0
 20
0.0
 30
0.0
  9
$UCSORGLEFT
 10
0.0
 20
0.0
 30
0.0
  9
$UCSORGRIGHT
 10
0.0
 20
0.0
 30
0.0
  9
$UCSORGFRONT
 10
0.0
 20
0.0
 30
0.0
  9
$UCSORGBACK
 10
0.0
 20
0.0
 30
0.0
  9
$PUCSBASE
  2

  9
$PUCSNAME
  2

  9
$PUCSORG
 10
0.0
 20
0.0
 30
0.0
  9
$PUCSXDIR
 10
1.0
 20
0.0
 30
0.0
  9
$PUCSYDIR
 10
0.0
 20
1.0
 30
0.0
  9
$PUCSORTHOREF
  2

  9
$PUCSORTHOVIEW
 70
     0
  9
$PUCSORGTOP
 10
0.0
 20
0.0
 30
0.0
  9
$PUCSORGBOTTOM
 10
0.0
 20
0.0
 30
0.0
  9
$PUCSORGLEFT
 10
0.0
 20
0.0
 30
0.0
  9
$PUCSORGRIGHT
 10
0.0
 20
0.0
 30
0.0
  9
$PUCSORGFRONT
 10
0.0
 20
0.0
 30
0.0
  9
$PUCSORGBACK
 10
0.0
 20
0.0
 30
0.0
  9
$USERI1
 70
     0
  9
$USERI2
 70
     0
  9
$USERI3
 70
     0
  9
$USERI4
 70
     0
  9
$USERI5
 70
     0
  9
$USERR1
 40
0.0
  9
$USERR2
 40
0.0
  9
$USERR3
 40
0.0
  9
$USERR4
 40
0.0
  9
$USERR5
 40
0.0
  9
$WORLDVIEW
 70
     1
  9
$SHADEDGE
 70
     3
  9
$SHADEDIF
 70
    70
  9
$TILEMODE
 70
     1
  9
$MAXACTVP
 70
    64
  9
$PINSBASE
 10
0.0
 20
0.0
 30
0.0
  9
$PLIMCHECK
 70
     0
  9
$PEXTMIN
 10
1.000000000000000E+20
 20
1.000000000000000E+20
 30
1.000000000000000E+20
  9
$PEXTMAX
 10
-1.000000000000000E+20
 20
-1.000000000000000E+20
 30
-1.000000000000000E+20
  9
$PLIMMIN
 10
0.0
 20
0.0
  9
$PLIMMAX
 10
420.0
 20
297.0
  9
$UNITMODE
 70
     0
  9
$VISRETAIN
 70
     1
  9
$PLINEGEN
 70
     0
  9
$PSLTSCALE
 70
     1
  9
$TREEDEPTH
 70
  3020
  9
$CMLSTYLE
  2
Standard
  9
$CMLJUST
 70
     0
  9
$CMLSCALE
 40
1.0
  9
$PROXYGRAPHICS
 70
     1
  9
$MEASUREMENT
 70
     0
  9
$CELWEIGHT
370
    -1
  9
$ENDCAPS
280
     0
  9
$JOINSTYLE
280
     0
  9
$LWDISPLAY
290
     0
  9
$INSUNITS
 70
     0
  9
$HYPERLINKBASE
  1

  9
$STYLESHEET
  1

  9
$XEDIT
290
     1
  9
$CEPSNTYPE
380
     0
  9
$PSTYLEMODE
290
     1
  9
$FINGERPRINTGUID
  2
{F28305D8-7C18-4369-90EB-BFABBADB8EAD}
  9
$VERSIONGUID
  2
{17495F25-C7CB-428A-A4C7-9FBF03B1170D}
  9
$EXTNAMES
290
     1
  9
$PSVPSCALE
 40
0.0
  9
$OLESTARTUP
290
     0
  0
ENDSEC
  0
SECTION
  2
CLASSES
  0
CLASS
  1
ACDBDICTIONARYWDFLT
  2
AcDbDictionaryWithDefault
  3
AutoCAD 2000
 90
        0
280
     0
281
     0
  0
CLASS
  1
ACDBPLACEHOLDER
  2
AcDbPlaceHolder
  3
AutoCAD 2000
 90
        0
280
     0
281
     0
  0
CLASS
  1
LAYOUT
  2
AcDbLayout
  3
AutoCAD 2000
 90
        0
280
     0
281
     0
  0
CLASS
  1
DICTIONARYVAR
  2
AcDbDictionaryVar
  3
AutoCAD 2000
 90
        0
280
     0
281
     0
  0
ENDSEC
  0
SECTION
  2
TABLES
  0
TABLE
  2
VPORT
  5
1A4
330
0
100
AcDbSymbolTable
 70
     2
  0
VPORT
  5
444
330
1A4
100
AcDbSymbolTableRecord
100
AcDbViewportTableRecord
  2
*Active
 70
     0
 10
0.0
 20
0.0
 11
1.0
 21
1.0
 12
352.7353329835895
 22
161.6108536847018
 13
0.0
 23
0.0
 14
10.0
 24
10.0
 15
10.0
 25
10.0
 16
0.0
 26
0.0
 36
1.0
 17
0.0
 27
0.0
 37
0.0
 40
469.9319306171372
 41
1.22509702457956
 42
50.0
 43
0.0
 44
0.0
 50
0.0
 51
0.0
 71
     0
 72
   100
 73
     1
 74
     3
 75
     0
 76
     0
 77
     0
 78
     0
281
     0
 65
     1
110
0.0
120
0.0
130
0.0
111
1.0
121
0.0
131
0.0
112
0.0
122
1.0
132
0.0
 79
     0
146
0.0
  0
ENDTAB
  0
TABLE
  2
LTYPE
  5
1A1
330
0
100
AcDbSymbolTable
 70
     1
  0
LTYPE
  5
1AF
330
1A1
100
AcDbSymbolTableRecord
100
AcDbLinetypeTableRecord
  2
ByBlock
 70
     0
  3

 72
    65
 73
     0
 40
0.0
  0
LTYPE
  5
1B0
330
1A1
100
AcDbSymbolTableRecord
100
AcDbLinetypeTableRecord
  2
ByLayer
 70
     0
  3

 72
    65
 73
     0
 40
0.0
  0
LTYPE
  5
1B1
330
1A1
100
AcDbSymbolTableRecord
100
AcDbLinetypeTableRecord
  2
CONTINUOUS
 70
     0
  3
Solid line
 72
    65
 73
     0
 40
0.0
  0
ENDTAB
  0
TABLE
  2
LAYER
  5
19E
330
0
100
AcDbSymbolTable
 70
     5
  0
LAYER
  5
1AC
330
19E
100
AcDbSymbolTableRecord
100
AcDbLayerTableRecord
  2
0
 70
     0
 62
     7
  6
CONTINUOUS
370
    -3
390
1AB
  0
LAYER
  5
1BF
330
19E
100
AcDbSymbolTableRecord
100
AcDbLayerTableRecord
  2
1外形線
 70
     0
 62
     3
  6
CONTINUOUS
370
    -3
390
1AB
  0
LAYER
  5
1CB
330
19E
100
AcDbSymbolTableRecord
100
AcDbLayerTableRecord
  2
2寸法線
 70
     0
 62
     2
  6
CONTINUOUS
370
    -3
390
1AB
  0
LAYER
  5
218
330
19E
100
AcDbSymbolTableRecord
100
AcDbLayerTableRecord
  2
Defpoints
 70
     0
 62
     7
  6
CONTINUOUS
290
     0
370
    -3
390
1AB
  0
ENDTAB
  0
TABLE
  2
STYLE
  5
19F
330
0
100
AcDbSymbolTable
 70
     2
  0
STYLE
  5
1AD
330
19F
100
AcDbSymbolTableRecord
100
AcDbTextStyleTableRecord
  2
STANDARD
 70
     0
 40
0.0
 41
1.0
 50
0.0
 71
     0
 42
2.5
  3
txt
  4

  0
STYLE
  5
1C1
330
19F
100
AcDbSymbolTableRecord
100
AcDbTextStyleTableRecord
  2
KANJI
 70
     0
 40
0.0
 41
1.0
 50
0.0
 71
     0
 42
2.5
  3
simplex.shx
  4
extfont.shx
  0
ENDTAB
  0
TABLE
  2
VIEW
  5
1A2
330
0
100
AcDbSymbolTable
 70
     0
  0
ENDTAB
  0
TABLE
  2
UCS
  5
1A3
330
0
100
AcDbSymbolTable
 70
     0
  0
ENDTAB
  0
TABLE
  2
APPID
  5
1A5
330
0
100
AcDbSymbolTable
 70
     1
  0
APPID
  5
1AE
330
1A5
100
AcDbSymbolTableRecord
100
AcDbRegAppTableRecord
  2
ACAD
 70
     0
  0
ENDTAB
  0
TABLE
  2
DIMSTYLE
  5
1A6
330
0
100
AcDbSymbolTable
 70
     2
100
AcDbDimStyleTable
 71
     1
340
1C2
  0
DIMSTYLE
105
1C2
330
1A6
100
AcDbSymbolTableRecord
100
AcDbDimStyleTableRecord
  2
ISO-25
 70
     0
 41
2.5
 42
0.625
 43
3.75
 44
1.25
 73
     0
 74
     0
 77
     1
 78
     8
140
2.5
141
2.5
143
0.03937007874016
147
0.625
171
     3
172
     1
274
     3
279
     2
284
     8
285
     8
286
     8
340
1AD
  0
DIMSTYLE
105
1C3
330
1A6
100
AcDbSymbolTableRecord
100
AcDbDimStyleTableRecord
  2
STANDARD
 70
     0
274
     3
279
     2
284
     8
285
     8
286
     8
340
1AD
  0
ENDTAB
  0
TABLE
  2
BLOCK_RECORD
  5
19D
330
0
100
AcDbSymbolTable
 70
     9
  0
BLOCK_RECORD
  5
1BA
330
19D
100
AcDbSymbolTableRecord
100
AcDbBlockTableRecord
  2
*Model_Space
340
1BD
  0
BLOCK_RECORD
  5
1B6
330
19D
100
AcDbSymbolTableRecord
100
AcDbBlockTableRecord
  2
*Paper_Space
340
1B9
  0
ENDTAB
  0
ENDSEC
  0
SECTION
  2
BLOCKS
  0
BLOCK
  5
1BB
330
1BA
100
AcDbEntity
  8
0
100
AcDbBlockBegin
  2
*Model_Space
 70
     0
 10
0.0
 20
0.0
 30
0.0
  3
*Model_Space
  1

  0
ENDBLK
  5
1BC
330
1BA
100
AcDbEntity
  8
0
100
AcDbBlockEnd
  0
BLOCK
  5
1B7
330
1B6
100
AcDbEntity
 67
     1
  8
0
100
AcDbBlockBegin
  2
*Paper_Space
 70
     0
 10
0.0
 20
0.0
 30
0.0
  3
*Paper_Space
  1

  0
ENDBLK
  5
1B8
330
1B6
100
AcDbEntity
 67
     1
  8
0
100
AcDbBlockEnd
  0
ENDSEC
  0
SECTION
  2
ENTITIES
  0
LINE
  5
270
330
1BA
100
AcDbEntity
  8
1外形線
100
AcDbLine
 10
37.36842050492986
 20
282.1871967989068
 30
0.0
 11
37.36842050492986
 21
40.98617570626027
 31
0.0
  0
LINE
  5
272
330
1BA
100
AcDbEntity
  8
1外形線
100
AcDbLine
 10
494.8684205049296
 20
282.1871967989068
 30
0.0
 11
494.8684205049296
 21
40.98617570626027
 31
0.0
  0
LINE
  5
37C
330
1BA
100
AcDbEntity
  8
1外形線
100
AcDbLine
 10
163.5332733257214
 20
145.4402091729305
 30
0.0
 11
138.1043411375867
 21
145.4402091729305
 31
0.0
  0
LINE
  5
37D
330
1BA
100
AcDbEntity
  8
1外形線
100
AcDbLine
 10
163.5332733257214
 20
142.9402091729305
 30
0.0
 11
138.1043411375867
 21
142.9402091729305
 31
0.0
  0
LINE
  5
37E
330
1BA
100
AcDbEntity
  8
1外形線
100
AcDbLine
 10
89.60434113758664
 20
70.44020917293062
 30
0.0
 11
186.6043411375866
 21
70.44020917293062
 31
0.0
  0
LINE
  5
37F
330
1BA
100
AcDbEntity
  8
1外形線
100
AcDbLine
 10
89.60434113758664
 20
72.94020917293062
 30
0.0
 11
186.6043411375866
 21
72.94020917293074
 31
0.0
  0
LINE
  5
380
330
1BA
100
AcDbEntity
  8
1外形線
100
AcDbLine
 10
93.10434113758672
 20
125.8691413610651
 30
0.0
 11
93.10434113758663
 21
70.44020917293062
 31
0.0
  0
LINE
  5
381
330
1BA
100
AcDbEntity
  8
1外形線
100
AcDbLine
 10
95.60434113758672
 20
72.94020917293074
 30
0.0
 11
95.60434113758672
 21
125.8691413610651
 31
0.0
  0
LINE
  5
384
330
1BA
100
AcDbEntity
  8
1外形線
100
AcDbLine
 10
95.30104027868743
 20
131.1724422199644
 30
0.0
 11
107.3721080905531
 21
143.2435100318299
 31
0.0
  0
ARC
  5
385
330
1BA
100
AcDbEntity
  8
1外形線
100
AcDbCircle
 10
100.6043411375868
 20
125.8691413610651
 30
0.0
 40
5.0
100
AcDbArc
 50
135.0000000000002
 51
180.0
  0
ARC
  5
389
330
1BA
100
AcDbEntity
  8
1外形線
100
AcDbCircle
 10
100.6043411375868
 20
125.8691413610651
 30
0.0
 40
7.500000000000111
100
AcDbArc
 50
135.0000000000002
 51
180.0
  0
LINE
  5
38A
330
1BA
100
AcDbEntity
  8
1外形線
100
AcDbLine
 10
112.675408949452
 20
145.4402091729308
 30
0.0
 11
138.1043411375867
 21
145.4402091729305
 31
0.0
  0
LINE
  5
38B
330
1BA
100
AcDbEntity
  8
1外形線
100
AcDbLine
 10
112.675408949452
 20
142.9402091729305
 30
0.0
 11
138.1043411375867
 21
142.9402091729305
 31
0.0
  0
LINE
  5
38C
330
1BA
100
AcDbEntity
  8
1外形線
100
AcDbLine
 10
97.06880723165388
 20
129.4046752669979
 30
0.0
 11
109.1398750435196
 21
141.4757430788634
 31
0.0
  0
ARC
  5
38D
330
1BA
100
AcDbEntity
  8
1外形線
100
AcDbCircle
 10
112.675408949452
 20
137.9402091729307
 30
0.0
 40
7.500000000000111
100
AcDbArc
 50
89.99999999999998
 51
135.0000000000002
  0
ARC
  5
38E
330
1BA
100
AcDbEntity
  8
1外形線
100
AcDbCircle
 10
112.675408949452
 20
137.9402091729307
 30
0.0
 40
5.0
100
AcDbArc
 50
89.99999999999998
 51
135.0000000000002
  0
LINE
  5
38F
330
1BA
100
AcDbEntity
  8
1外形線
100
AcDbLine
 10
183.1043411375866
 20
125.8691413610651
 30
0.0
 11
183.1043411375866
 21
70.44020917293067
 31
0.0
  0
LINE
  5
390
330
1BA
100
AcDbEntity
  8
1外形線
100
AcDbLine
 10
180.6043411375866
 20
72.94020917293067
 30
0.0
 11
180.6043411375866
 21
125.8691413610651
 31
0.0
  0
ARC
  5
391
330
1BA
100
AcDbEntity
  8
1外形線
100
AcDbCircle
 10
163.5332733257214
 20
137.9402091729307
 30
0.0
 40
7.500000000000111
100
AcDbArc
 50
44.9999999999997
 51
89.99999999999998
  0
ARC
  5
392
330
1BA
100
AcDbEntity
  8
1外形線
100
AcDbCircle
 10
163.5332733257214
 20
137.9402091729307
 30
0.0
 40
5.0
100
AcDbArc
 50
44.9999999999997
 51
89.99999999999998
  0
ARC
  5
393
330
1BA
100
AcDbEntity
  8
1外形線
100
AcDbCircle
 10
175.6043411375866
 20
125.8691413610651
 30
0.0
 40
7.500000000000111
100
AcDbArc
 50
0.0
 51
44.9999999999997
  0
ARC
  5
394
330
1BA
100
AcDbEntity
  8
1外形線
100
AcDbCircle
 10
175.6043411375866
 20
125.8691413610651
 30
0.0
 40
5.0
100
AcDbArc
 50
0.0
 51
44.9999999999997
  0
LINE
  5
395
330
1BA
100
AcDbEntity
  8
1外形線
100
AcDbLine
 10
179.1398750435195
 20
129.4046752669979
 30
0.0
 11
167.0688072316536
 21
141.4757430788634
 31
0.0
  0
LINE
  5
396
330
1BA
100
AcDbEntity
  8
1外形線
100
AcDbLine
 10
180.907641996486
 20
131.1724422199644
 30
0.0
 11
168.8365741846203
 21
143.2435100318298
 31
0.0
  0
LINE
  5
3BA
330
1BA
100
AcDbEntity
  8
1外形線
100
AcDbLine
 10
224.4351651863472
 20
144.4402091729308
 30
0.0
 11
224.4351651863471
 21
70.44020917293067
 31
0.0
  0
LINE
  5
3BB
330
1BA
100
AcDbEntity
  8
1外形線
100
AcDbLine
 10
224.4351651863471
 20
70.44020917293067
 30
0.0
 11
269.435165186347
 21
70.44020917293062
 31
0.0
  0
LINE
  5
3BC
330
1BA
100
AcDbEntity
  8
1外形線
100
AcDbLine
 10
227.435165186347
 20
145.4402091729308
 30
0.0
 11
242.4351651863472
 21
145.4402091729308
 31
0.0
  0
LINE
  5
3BD
330
1BA
100
AcDbEntity
  8
1外形線
100
AcDbLine
 10
224.4351651863472
 20
72.94020917293074
 30
0.0
 11
269.435165186347
 21
72.94020917293074
 31
0.0
  0
LINE
  5
3BE
330
1BA
100
AcDbEntity
  8
1外形線
100
AcDbLine
 10
269.435165186347
 20
151.4402091729305
 30
0.0
 11
269.435165186347
 21
70.44020917293062
 31
0.0
  0
LINE
  5
3BF
330
1BA
100
AcDbEntity
  8
1外形線
100
AcDbLine
 10
242.4351651863472
 20
145.4402091729308
 30
0.0
 11
242.435165186347
 21
72.94020917293074
 31
0.0
  0
LINE
  5
3C1
330
1BA
100
AcDbEntity
  8
1外形線
100
AcDbLine
 10
227.4351651863472
 20
145.4402091729308
 30
0.0
 11
227.4351651863472
 21
72.94020917293074
 31
0.0
  0
LINE
  5
3C4
330
1BA
100
AcDbEntity
  8
1外形線
100
AcDbLine
 10
224.4351651863472
 20
144.4402091729308
 30
0.0
 11
227.435165186347
 21
145.4402091729308
 31
0.0
  0
LINE
  5
3C5
330
1BA
100
AcDbEntity
  8
1外形線
100
AcDbLine
 10
306.3568649106428
 20
70.44020917293062
 30
0.0
 11
403.3568649106427
 21
70.44020917293062
 31
0.0
  0
LINE
  5
3C8
330
1BA
100
AcDbEntity
  8
1外形線
100
AcDbLine
 10
306.3568649106428
 20
70.44020917293062
 30
0.0
 11
306.3568649106428
 21
132.869141361065
 31
0.0
  0
LINE
  5
3C9
330
1BA
100
AcDbEntity
  8
1外形線
100
AcDbLine
 10
403.3568649106427
 20
70.44020917293062
 30
0.0
 11
403.3568649106427
 21
132.869141361065
 31
0.0
  0
LINE
  5
3CA
330
1BA
100
AcDbEntity
  8
1外形線
100
AcDbLine
 10
325.9279327225082
 20
152.4402091729306
 30
0.0
 11
383.7857970987773
 21
152.4402091729306
 31
0.0
  0
LINE
  5
3CC
330
1BA
100
AcDbEntity
  8
1外形線
100
AcDbLine
 10
308.5535640517433
 20
138.1724422199642
 30
0.0
 11
320.6246318636091
 21
150.2435100318295
 31
0.0
  0
ARC
  5
3CD
330
1BA
100
AcDbEntity
  8
1外形線
100
AcDbCircle
 10
313.8568649106429
 20
132.869141361065
 30
0.0
 40
7.500000000000111
100
AcDbArc
 50
135.0000000000002
 51
180.0
  0
ARC
  5
3D0
330
1BA
100
AcDbEntity
  8
1外形線
100
AcDbCircle
 10
325.9279327225082
 20
144.9402091729305
 30
0.0
 40
7.500000000000111
100
AcDbArc
 50
89.99999999999998
 51
135.0000000000002
  0
ARC
  5
3D4
330
1BA
100
AcDbEntity
  8
1外形線
100
AcDbCircle
 10
383.7857970987773
 20
144.9402091729305
 30
0.0
 40
7.500000000000111
100
AcDbArc
 50
44.99999999999975
 51
90.00000000000005
  0
LINE
  5
3D5
330
1BA
100
AcDbEntity
  8
1外形線
100
AcDbLine
 10
401.1601657695421
 20
138.1724422199642
 30
0.0
 11
389.0890979576763
 21
150.2435100318295
 31
0.0
  0
ARC
  5
3D8
330
1BA
100
AcDbEntity
  8
1外形線
100
AcDbCircle
 10
395.8568649106426
 20
132.869141361065
 30
0.0
 40
7.500000000000111
100
AcDbArc
 50
0.000000000000007
 51
44.99999999999975
  0
LINE
  5
3D9
330
1BA
100
AcDbEntity
  8
1外形線
100
AcDbLine
 10
312.3568649106429
 20
76.44020917293062
 30
0.0
 11
397.3568649106427
 21
76.44020917293062
 31
0.0
  0
LINE
  5
3DA
330
1BA
100
AcDbEntity
  8
1外形線
100
AcDbLine
 10
312.3568649106429
 20
76.44020917293062
 30
0.0
 11
312.3568649106426
 21
131.4193938927592
 31
0.0
  0
LINE
  5
3DB
330
1BA
100
AcDbEntity
  8
1外形線
100
AcDbLine
 10
313.8213310047101
 20
134.9549277986922
 30
0.0
 11
323.8421462848813
 21
144.9757430788634
 31
0.0
  0
LINE
  5
3DC
330
1BA
100
AcDbEntity
  8
1外形線
100
AcDbLine
 10
327.3776801908141
 20
146.4402091729304
 30
0.0
 11
382.3360496304715
 21
146.4402091729304
 31
0.0
  0
LINE
  5
3DD
330
1BA
100
AcDbEntity
  8
1外形線
100
AcDbLine
 10
395.8923988165754
 20
134.9549277986922
 30
0.0
 11
385.8715835364041
 21
144.9757430788634
 31
0.0
  0
LINE
  5
3DE
330
1BA
100
AcDbEntity
  8
1外形線
100
AcDbLine
 10
397.3568649106427
 20
76.44020917293062
 30
0.0
 11
397.3568649106427
 21
131.4193938927594
 31
0.0
  0
ARC
  5
3DF
330
1BA
100
AcDbEntity
  8
1外形線
100
AcDbCircle
 10
317.3568649106428
 20
131.4193938927592
 30
0.0
 40
5.0
100
AcDbArc
 50
134.9999999999992
 51
180.0000000000001
  0
ARC
  5
3E0
330
1BA
100
AcDbEntity
  8
1外形線
100
AcDbCircle
 10
327.3776801908141
 20
141.4402091729305
 30
0.0
 40
5.0
100
AcDbArc
 50
90.00000000000005
 51
134.9999999999994
  0
ARC
  5
3E1
330
1BA
100
AcDbEntity
  8
1外形線
100
AcDbCircle
 10
382.3360496304715
 20
141.4402091729305
 30
0.0
 40
5.0
100
AcDbArc
 50
45.00000000000066
 51
89.99999999999998
  0
ARC
  5
3E2
330
1BA
100
AcDbEntity
  8
1外形線
100
AcDbCircle
 10
392.3568649106426
 20
131.4193938927594
 30
0.0
 40
5.0
100
AcDbArc
 50
0.0000000000001018
 51
45.00000000000039
  0
LINE
  5
3E3
330
1BA
100
AcDbEntity
  8
1外形線
100
AcDbLine
 10
266.4351651863471
 20
152.4402091729306
 30
0.0
 11
259.435165186347
 21
152.4402091729306
 31
0.0
  0
LINE
  5
3E4
330
1BA
100
AcDbEntity
  8
1外形線
100
AcDbLine
 10
259.435165186347
 20
152.4402091729306
 30
0.0
 11
259.435165186347
 21
72.94020917293074
 31
0.0
  0
LINE
  5
3E6
330
1BA
100
AcDbEntity
  8
1外形線
100
AcDbLine
 10
242.4351651863472
 20
145.4402091729308
 30
0.0
 11
259.435165186347
 21
152.4402091729306
 31
0.0
  0
LINE
  5
3E7
330
1BA
100
AcDbEntity
  8
1外形線
100
AcDbLine
 10
266.435165186347
 20
152.4402091729306
 30
0.0
 11
266.4351651863471
 21
72.94020917293074
 31
0.0
  0
LINE
  5
3E9
330
1BA
100
AcDbEntity
  8
1外形線
100
AcDbLine
 10
266.4351651863471
 20
152.4402091729306
 30
0.0
 11
269.435165186347
 21
151.4402091729305
 31
0.0
  0
LINE
  5
3EB
330
1BA
100
AcDbEntity
  8
1外形線
100
AcDbLine
 10
89.60434113758664
 20
70.44020917293062
 30
0.0
 11
89.60434113758664
 21
132.869141361065
 31
0.0
  0
ARC
  5
3EC
330
1BA
100
AcDbEntity
  8
1外形線
100
AcDbCircle
 10
97.10434113758672
 20
132.869141361065
 30
0.0
 40
7.500000000000111
100
AcDbArc
 50
135.0000000000002
 51
180.0
  0
LINE
  5
3ED
330
1BA
100
AcDbEntity
  8
1外形線
100
AcDbLine
 10
91.80104027868731
 20
138.1724422199642
 30
0.0
 11
103.872108090553
 21
150.2435100318295
 31
0.0
  0
LINE
  5
3EE
330
1BA
100
AcDbEntity
  8
1外形線
100
AcDbLine
 10
109.175408949452
 20
152.4402091729306
 30
0.0
 11
167.0332733257211
 21
152.4402091729306
 31
0.0
  0
ARC
  5
3EF
330
1BA
100
AcDbEntity
  8
1外形線
100
AcDbCircle
 10
109.175408949452
 20
144.9402091729305
 30
0.0
 40
7.500000000000111
100
AcDbArc
 50
89.99999999999998
 51
135.0000000000002
  0
LINE
  5
3F0
330
1BA
100
AcDbEntity
  8
1外形線
100
AcDbLine
 10
184.4076419964858
 20
138.1724422199642
 30
0.0
 11
172.3365741846201
 21
150.2435100318295
 31
0.0
  0
ARC
  5
3F1
330
1BA
100
AcDbEntity
  8
1外形線
100
AcDbCircle
 10
167.0332733257211
 20
144.9402091729305
 30
0.0
 40
7.500000000000111
100
AcDbArc
 50
44.99999999999975
 51
90.00000000000005
  0
LINE
  5
3F2
330
1BA
100
AcDbEntity
  8
1外形線
100
AcDbLine
 10
186.6043411375866
 20
70.44020917293062
 30
0.0
 11
186.6043411375865
 21
132.869141361065
 31
0.0
  0
ARC
  5
3F3
330
1BA
100
AcDbEntity
  8
1外形線
100
AcDbCircle
 10
179.1043411375865
 20
132.869141361065
 30
0.0
 40
7.500000000000111
100
AcDbArc
 50
0.000000000000007
 51
44.99999999999975
  0
LINE
  5
3F4
330
1BA
100
AcDbEntity
  8
1外形線
100
AcDbLine
 10
138.1043411375866
 20
183.5239512364588
 30
0.0
 11
182.1043411375868
 21
183.5239512364588
 31
0.0
  0
LINE
  5
410
330
1BA
100
AcDbEntity
  8
1外形線
100
AcDbLine
 10
138.1043411375864
 20
228.5239512364588
 30
0.0
 11
185.6043411375865
 21
228.5239512364588
 31
0.0
  0
LINE
  5
41E
330
1BA
100
AcDbEntity
  8
1外形線
100
AcDbLine
 10
138.1043411375866
 20
201.5239512364588
 30
0.0
 11
183.1043411375868
 21
201.5239512364588
 31
0.0
  0
LINE
  5
41F
330
1BA
100
AcDbEntity
  8
1外形線
100
AcDbLine
 10
138.1043411375864
 20
218.5239512364588
 30
0.0
 11
186.6043411375866
 21
218.5239512364588
 31
0.0
  0
LINE
  5
420
330
1BA
100
AcDbEntity
  8
1外形線
100
AcDbLine
 10
186.6043411375866
 20
225.5239512364588
 30
0.0
 11
186.6043411375866
 21
218.5239512364588
 31
0.0
  0
LINE
  5
421
330
1BA
100
AcDbEntity
  8
1外形線
100
AcDbLine
 10
183.1043411375868
 20
186.5239512364588
 30
0.0
 11
183.1043411375868
 21
201.5239512364588
 31
0.0
  0
LINE
  5
422
330
1BA
100
AcDbEntity
  8
1外形線
100
AcDbLine
 10
183.1043411375868
 20
201.5239512364588
 30
0.0
 11
186.6043411375866
 21
218.5239512364588
 31
0.0
  0
LINE
  5
423
330
1BA
100
AcDbEntity
  8
1外形線
100
AcDbLine
 10
138.1043411375866
 20
186.5239512364588
 30
0.0
 11
183.1043411375868
 21
186.5239512364588
 31
0.0
  0
LINE
  5
425
330
1BA
100
AcDbEntity
  8
1外形線
100
AcDbLine
 10
182.1043411375868
 20
183.5239512364588
 30
0.0
 11
183.1043411375868
 21
186.5239512364588
 31
0.0
  0
LINE
  5
426
330
1BA
100
AcDbEntity
  8
1外形線
100
AcDbLine
 10
138.1043411375864
 20
225.5239512364588
 30
0.0
 11
186.6043411375866
 21
225.5239512364588
 31
0.0
  0
LINE
  5
428
330
1BA
100
AcDbEntity
  8
1外形線
100
AcDbLine
 10
186.6043411375866
 20
225.5239512364588
 30
0.0
 11
185.6043411375865
 21
228.5239512364588
 31
0.0
  0
LINE
  5
429
330
1BA
100
AcDbEntity
  8
1外形線
100
AcDbLine
 10
93.1043411375864
 20
201.5239512364588
 30
0.0
 11
89.60434113758664
 21
218.5239512364588
 31
0.0
  0
LINE
  5
42A
330
1BA
100
AcDbEntity
  8
1外形線
100
AcDbLine
 10
138.1043411375866
 20
183.5239512364588
 30
0.0
 11
94.10434113758629
 21
183.5239512364588
 31
0.0
  0
LINE
  5
42B
330
1BA
100
AcDbEntity
  8
1外形線
100
AcDbLine
 10
138.1043411375866
 20
186.5239512364588
 30
0.0
 11
93.1043411375864
 21
186.5239512364588
 31
0.0
  0
LINE
  5
42C
330
1BA
100
AcDbEntity
  8
1外形線
100
AcDbLine
 10
138.1043411375866
 20
201.5239512364588
 30
0.0
 11
93.1043411375864
 21
201.5239512364588
 31
0.0
  0
LINE
  5
42D
330
1BA
100
AcDbEntity
  8
1外形線
100
AcDbLine
 10
93.1043411375864
 20
186.5239512364588
 30
0.0
 11
93.1043411375864
 21
201.5239512364588
 31
0.0
  0
LINE
  5
42E
330
1BA
100
AcDbEntity
  8
1外形線
100
AcDbLine
 10
94.10434113758629
 20
183.5239512364588
 30
0.0
 11
93.1043411375864
 21
186.5239512364588
 31
0.0
  0
LINE
  5
42F
330
1BA
100
AcDbEntity
  8
1外形線
100
AcDbLine
 10
138.1043411375867
 20
228.5239512364588
 30
0.0
 11
90.60434113758672
 21
228.5239512364588
 31
0.0
  0
LINE
  5
430
330
1BA
100
AcDbEntity
  8
1外形線
100
AcDbLine
 10
138.1043411375867
 20
225.5239512364588
 30
0.0
 11
89.60434113758664
 21
225.5239512364588
 31
0.0
  0
LINE
  5
431
330
1BA
100
AcDbEntity
  8
1外形線
100
AcDbLine
 10
138.1043411375867
 20
218.5239512364588
 30
0.0
 11
89.60434113758664
 21
218.5239512364588
 31
0.0
  0
LINE
  5
432
330
1BA
100
AcDbEntity
  8
1外形線
100
AcDbLine
 10
89.60434113758651
 20
225.5239512364588
 30
0.0
 11
89.60434113758664
 21
218.5239512364588
 31
0.0
  0
LINE
  5
433
330
1BA
100
AcDbEntity
  8
1外形線
100
AcDbLine
 10
89.60434113758651
 20
225.5239512364588
 30
0.0
 11
90.60434113758672
 21
228.5239512364588
 31
0.0
  0
TEXT
  5
434
330
1BA
100
AcDbEntity
  8
1外形線
100
AcDbText
 10
87.36841971011811
 20
254.8974998151698
 30
0.0
 40
10.0
  1
MFJ-85
  7
KANJI
100
AcDbText
  0
LINE
  5
435
330
1BA
100
AcDbEntity
  8
1外形線
100
AcDbLine
 10
494.8684205049296
 20
40.98617570626027
 30
0.0
 11
37.36842050492986
 21
40.98617570626027
 31
0.0
  0
LINE
  5
436
330
1BA
100
AcDbEntity
  8
1外形線
100
AcDbLine
 10
494.8684205049296
 20
282.1871967989068
 30
0.0
 11
37.36842050492986
 21
282.1871967989068
 31
0.0
  0
ENDSEC
  0
SECTION
  2
OBJECTS
  0
DICTIONARY
  5
1A8
330
0
100
AcDbDictionary
281
     1
  3
ACAD_GROUP
350
1A9
  3
ACAD_LAYOUT
350
1B5
  3
ACAD_MLINESTYLE
350
1B2
  3
ACAD_PLOTSETTINGS
350
1B4
  3
ACAD_PLOTSTYLENAME
350
1AA
  3
AcDbVariableDictionary
350
26D
  0
DICTIONARY
  5
1A9
102
{ACAD_REACTORS
330
1A8
102
}
330
1A8
100
AcDbDictionary
281
     1
  0
DICTIONARY
  5
1B5
102
{ACAD_REACTORS
330
1A8
102
}
330
1A8
100
AcDbDictionary
281
     1
  3
Model
350
1BD
  3
ﾚｲｱｳﾄ1
350
1B9
  0
DICTIONARY
  5
1B2
102
{ACAD_REACTORS
330
1A8
102
}
330
1A8
100
AcDbDictionary
281
     1
  3
Standard
350
1B3
  0
DICTIONARY
  5
1B4
102
{ACAD_REACTORS
330
1A8
102
}
330
1A8
100
AcDbDictionary
281
     1
  0
ACDBDICTIONARYWDFLT
  5
1AA
102
{ACAD_REACTORS
330
1A8
102
}
330
1A8
100
AcDbDictionary
281
     1
  3
Normal
350
1AB
100
AcDbDictionaryWithDefault
340
1AB
  0
DICTIONARY
  5
26D
102
{ACAD_REACTORS
330
1A8
102
}
330
1A8
100
AcDbDictionary
281
     1
  3
DIMASSOC
350
26E
  0
LAYOUT
  5
1BD
102
{ACAD_REACTORS
330
1B5
102
}
330
1B5
100
AcDbPlotSettings
  1

  2
Canon LASER SHOT LBP-1710
  4

  6

 40
0.0
 41
0.0
 42
0.0
 43
0.0
 44
0.0
 45
0.0
 46
0.0
 47
0.0
 48
0.0
 49
0.0
140
0.0
141
0.0
142
1.0
143
1.0
 70
  1712
 72
     0
 73
     0
 74
     0
  7
1mizukoshi.ctb
 75
     0
147
1.0
148
0.0
149
0.0
100
AcDbLayout
  1
Model
 70
     1
 71
     0
 10
0.0
 20
0.0
 11
12.0
 21
9.0
 12
0.0
 22
0.0
 32
0.0
 14
0.0
 24
0.0
 34
0.0
 15
0.0
 25
0.0
 35
0.0
146
0.0
 13
0.0
 23
0.0
 33
0.0
 16
1.0
 26
0.0
 36
0.0
 17
0.0
 27
1.0
 37
0.0
 76
     0
330
1BA
  0
LAYOUT
  5
1B9
102
{ACAD_REACTORS
330
1B5
102
}
330
1B5
100
AcDbPlotSettings
  1

  2
Canon LASER SHOT LBP-1710
  4

  6

 40
0.0
 41
0.0
 42
0.0
 43
0.0
 44
0.0
 45
0.0
 46
0.0
 47
0.0
 48
0.0
 49
0.0
140
0.0
141
0.0
142
1.0
143
1.0
 70
   688
 72
     0
 73
     0
 74
     5
  7
1mizukoshi.ctb
 75
    16
147
1.0
148
0.0
149
0.0
100
AcDbLayout
  1
ﾚｲｱｳﾄ1
 70
     1
 71
     1
 10
0.0
 20
0.0
 11
420.0
 21
297.0
 12
0.0
 22
0.0
 32
0.0
 14
1.000000000000000E+20
 24
1.000000000000000E+20
 34
1.000000000000000E+20
 15
-1.000000000000000E+20
 25
-1.000000000000000E+20
 35
-1.000000000000000E+20
146
0.0
 13
0.0
 23
0.0
 33
0.0
 16
1.0
 26
0.0
 36
0.0
 17
0.0
 27
1.0
 37
0.0
 76
     0
330
1B6
  0
MLINESTYLE
  5
1B3
102
{ACAD_REACTORS
330
1B2
102
}
330
1B2
100
AcDbMlineStyle
  2
STANDARD
 70
     0
  3

 62
   256
 51
90.0
 52
90.0
 71
     2
 49
0.5
 62
   256
  6
BYLAYER
 49
-0.5
 62
   256
  6
BYLAYER
  0
ACDBPLACEHOLDER
  5
1AB
102
{ACAD_REACTORS
330
1AA
102
}
330
1AA
  0
DICTIONARYVAR
  5
26E
102
{ACAD_REACTORS
330
26D
102
}
330
26D
100
DictionaryVariables
280
     0
  1
1
  0
ENDSEC
  0
EOF
