  0
SECTION
  2
HEADER
  9
$ACADVER
  1
AC1015
  9
$ACADMAINTVER
 70
    20
  9
$DWGCODEPAGE
  3
ANSI_932
  9
$INSBASE
 10
0.0
 20
0.0
 30
0.0
  9
$EXTMIN
 10
19.16244038989771
 20
20.9130168685312
 30
0.0
  9
$EXTMAX
 10
395.1368145398254
 20
729.913016868531
 30
0.0
  9
$LIMMIN
 10
0.0
 20
0.0
  9
$LIMMAX
 10
420.0
 20
297.0
  9
$ORTHOMODE
 70
     0
  9
$REGENMODE
 70
     1
  9
$FILLMODE
 70
     1
  9
$QTEXTMODE
 70
     0
  9
$MIRRTEXT
 70
     1
  9
$LTSCALE
 40
1.0
  9
$ATTMODE
 70
     1
  9
$TEXTSIZE
 40
2.5
  9
$TRACEWID
 40
1.0
  9
$TEXTSTYLE
  7
STANDARD
  9
$CLAYER
  8
0
  9
$CELTYPE
  6
ByLayer
  9
$CECOLOR
 62
   256
  9
$CELTSCALE
 40
1.0
  9
$DISPSILH
 70
     0
  9
$DIMSCALE
 40
1.0
  9
$DIMASZ
 40
2.5
  9
$DIMEXO
 40
0.625
  9
$DIMDLI
 40
3.75
  9
$DIMRND
 40
0.0
  9
$DIMDLE
 40
0.0
  9
$DIMEXE
 40
1.25
  9
$DIMTP
 40
0.0
  9
$DIMTM
 40
0.0
  9
$DIMTXT
 40
2.5
  9
$DIMCEN
 40
2.5
  9
$DIMTSZ
 40
0.0
  9
$DIMTOL
 70
     0
  9
$DIMLIM
 70
     0
  9
$DIMTIH
 70
     0
  9
$DIMTOH
 70
     0
  9
$DIMSE1
 70
     0
  9
$DIMSE2
 70
     0
  9
$DIMTAD
 70
     1
  9
$DIMZIN
 70
     8
  9
$DIMBLK
  1

  9
$DIMASO
 70
     1
  9
$DIMSHO
 70
     1
  9
$DIMPOST
  1

  9
$DIMAPOST
  1

  9
$DIMALT
 70
     0
  9
$DIMALTD
 70
     3
  9
$DIMALTF
 40
0.03937007874016
  9
$DIMLFAC
 40
1.0
  9
$DIMTOFL
 70
     1
  9
$DIMTVP
 40
0.0
  9
$DIMTIX
 70
     0
  9
$DIMSOXD
 70
     0
  9
$DIMSAH
 70
     0
  9
$DIMBLK1
  1

  9
$DIMBLK2
  1

  9
$DIMSTYLE
  2
ISO-25
  9
$DIMCLRD
 70
     0
  9
$DIMCLRE
 70
     0
  9
$DIMCLRT
 70
     0
  9
$DIMTFAC
 40
1.0
  9
$DIMGAP
 40
0.625
  9
$DIMJUST
 70
     0
  9
$DIMSD1
 70
     0
  9
$DIMSD2
 70
     0
  9
$DIMTOLJ
 70
     1
  9
$DIMTZIN
 70
     0
  9
$DIMALTZ
 70
     0
  9
$DIMALTTZ
 70
     0
  9
$DIMUPT
 70
     0
  9
$DIMDEC
 70
     4
  9
$DIMTDEC
 70
     4
  9
$DIMALTU
 70
     2
  9
$DIMALTTD
 70
     2
  9
$DIMTXSTY
  7
STANDARD
  9
$DIMAUNIT
 70
     0
  9
$DIMADEC
 70
     0
  9
$DIMALTRND
 40
0.0
  9
$DIMAZIN
 70
     0
  9
$DIMDSEP
 70
    46
  9
$DIMATFIT
 70
     3
  9
$DIMFRAC
 70
     0
  9
$DIMLDRBLK
  1

  9
$DIMLUNIT
 70
     2
  9
$DIMLWD
 70
    -2
  9
$DIMLWE
 70
    -2
  9
$DIMTMOVE
 70
     0
  9
$LUNITS
 70
     2
  9
$LUPREC
 70
     4
  9
$SKETCHINC
 40
1.0
  9
$FILLETRAD
 40
10.0
  9
$AUNITS
 70
     0
  9
$AUPREC
 70
     0
  9
$MENU
  1
.
  9
$ELEVATION
 40
0.0
  9
$PELEVATION
 40
0.0
  9
$THICKNESS
 40
0.0
  9
$LIMCHECK
 70
     0
  9
$CHAMFERA
 40
10.0
  9
$CHAMFERB
 40
10.0
  9
$CHAMFERC
 40
0.0
  9
$CHAMFERD
 40
0.0
  9
$SKPOLY
 70
     0
  9
$TDCREATE
 40
2452216.486136840
  9
$TDUCREATE
 40
2452216.111136840
  9
$TDUPDATE
 40
2457284.479871539
  9
$TDUUPDATE
 40
2457284.104871539
  9
$TDINDWG
 40
0.0006047917
  9
$TDUSRTIMER
 40
0.0006046759
  9
$USRTIMER
 70
     1
  9
$ANGBASE
 50
0.0
  9
$ANGDIR
 70
     0
  9
$PDMODE
 70
     0
  9
$PDSIZE
 40
0.0
  9
$PLINEWID
 40
0.0
  9
$SPLFRAME
 70
     0
  9
$SPLINETYPE
 70
     6
  9
$SPLINESEGS
 70
     8
  9
$HANDSEED
  5
5BD
  9
$SURFTAB1
 70
     6
  9
$SURFTAB2
 70
     6
  9
$SURFTYPE
 70
     6
  9
$SURFU
 70
     6
  9
$SURFV
 70
     6
  9
$UCSBASE
  2

  9
$UCSNAME
  2

  9
$UCSORG
 10
0.0
 20
0.0
 30
0.0
  9
$UCSXDIR
 10
1.0
 20
0.0
 30
0.0
  9
$UCSYDIR
 10
0.0
 20
1.0
 30
0.0
  9
$UCSORTHOREF
  2

  9
$UCSORTHOVIEW
 70
     0
  9
$UCSORGTOP
 10
0.0
 20
0.0
 30
0.0
  9
$UCSORGBOTTOM
 10
0.0
 20
0.0
 30
0.0
  9
$UCSORGLEFT
 10
0.0
 20
0.0
 30
0.0
  9
$UCSORGRIGHT
 10
0.0
 20
0.0
 30
0.0
  9
$UCSORGFRONT
 10
0.0
 20
0.0
 30
0.0
  9
$UCSORGBACK
 10
0.0
 20
0.0
 30
0.0
  9
$PUCSBASE
  2

  9
$PUCSNAME
  2

  9
$PUCSORG
 10
0.0
 20
0.0
 30
0.0
  9
$PUCSXDIR
 10
1.0
 20
0.0
 30
0.0
  9
$PUCSYDIR
 10
0.0
 20
1.0
 30
0.0
  9
$PUCSORTHOREF
  2

  9
$PUCSORTHOVIEW
 70
     0
  9
$PUCSORGTOP
 10
0.0
 20
0.0
 30
0.0
  9
$PUCSORGBOTTOM
 10
0.0
 20
0.0
 30
0.0
  9
$PUCSORGLEFT
 10
0.0
 20
0.0
 30
0.0
  9
$PUCSORGRIGHT
 10
0.0
 20
0.0
 30
0.0
  9
$PUCSORGFRONT
 10
0.0
 20
0.0
 30
0.0
  9
$PUCSORGBACK
 10
0.0
 20
0.0
 30
0.0
  9
$USERI1
 70
     0
  9
$USERI2
 70
     0
  9
$USERI3
 70
     0
  9
$USERI4
 70
     0
  9
$USERI5
 70
     0
  9
$USERR1
 40
0.0
  9
$USERR2
 40
0.0
  9
$USERR3
 40
0.0
  9
$USERR4
 40
0.0
  9
$USERR5
 40
0.0
  9
$WORLDVIEW
 70
     1
  9
$SHADEDGE
 70
     3
  9
$SHADEDIF
 70
    70
  9
$TILEMODE
 70
     1
  9
$MAXACTVP
 70
    64
  9
$PINSBASE
 10
0.0
 20
0.0
 30
0.0
  9
$PLIMCHECK
 70
     0
  9
$PEXTMIN
 10
1.000000000000000E+20
 20
1.000000000000000E+20
 30
1.000000000000000E+20
  9
$PEXTMAX
 10
-1.000000000000000E+20
 20
-1.000000000000000E+20
 30
-1.000000000000000E+20
  9
$PLIMMIN
 10
0.0
 20
0.0
  9
$PLIMMAX
 10
420.0
 20
297.0
  9
$UNITMODE
 70
     0
  9
$VISRETAIN
 70
     1
  9
$PLINEGEN
 70
     0
  9
$PSLTSCALE
 70
     1
  9
$TREEDEPTH
 70
  3020
  9
$CMLSTYLE
  2
Standard
  9
$CMLJUST
 70
     0
  9
$CMLSCALE
 40
1.0
  9
$PROXYGRAPHICS
 70
     1
  9
$MEASUREMENT
 70
     0
  9
$CELWEIGHT
370
    -1
  9
$ENDCAPS
280
     0
  9
$JOINSTYLE
280
     0
  9
$LWDISPLAY
290
     0
  9
$INSUNITS
 70
     0
  9
$HYPERLINKBASE
  1

  9
$STYLESHEET
  1

  9
$XEDIT
290
     1
  9
$CEPSNTYPE
380
     0
  9
$PSTYLEMODE
290
     1
  9
$FINGERPRINTGUID
  2
{23E5B3CC-EE41-437B-9204-98B75249C5F8}
  9
$VERSIONGUID
  2
{A89B7B91-060E-4ADE-8A3B-96CE078A3390}
  9
$EXTNAMES
290
     1
  9
$PSVPSCALE
 40
0.0
  9
$OLESTARTUP
290
     0
  0
ENDSEC
  0
SECTION
  2
CLASSES
  0
CLASS
  1
ACDBDICTIONARYWDFLT
  2
AcDbDictionaryWithDefault
  3
ObjectDBX Classes
 90
        0
280
     0
281
     0
  0
CLASS
  1
MATERIAL
  2
AcDbMaterial
  3
ObjectDBX Classes
 90
     1153
280
     0
281
     0
  0
CLASS
  1
VISUALSTYLE
  2
AcDbVisualStyle
  3
ObjectDBX Classes
 90
     4095
280
     0
281
     0
  0
CLASS
  1
SCALE
  2
AcDbScale
  3
ObjectDBX Classes
 90
     1153
280
     0
281
     0
  0
CLASS
  1
TABLESTYLE
  2
AcDbTableStyle
  3
ObjectDBX Classes
 90
     4095
280
     0
281
     0
  0
CLASS
  1
MLEADERSTYLE
  2
AcDbMLeaderStyle
  3
ACDB_MLEADERSTYLE_CLASS
 90
     4095
280
     0
281
     0
  0
CLASS
  1
DICTIONARYVAR
  2
AcDbDictionaryVar
  3
ObjectDBX Classes
 90
        0
280
     0
281
     0
  0
CLASS
  1
CELLSTYLEMAP
  2
AcDbCellStyleMap
  3
ObjectDBX Classes
 90
     1152
280
     0
281
     0
  0
CLASS
  1
ACDBPLACEHOLDER
  2
AcDbPlaceHolder
  3
ObjectDBX Classes
 90
        0
280
     0
281
     0
  0
CLASS
  1
LAYOUT
  2
AcDbLayout
  3
ObjectDBX Classes
 90
        0
280
     0
281
     0
  0
ENDSEC
  0
SECTION
  2
TABLES
  0
TABLE
  2
VPORT
  5
4BE
330
0
100
AcDbSymbolTable
 70
     1
  0
VPORT
  5
525
330
4BE
100
AcDbSymbolTableRecord
100
AcDbViewportTableRecord
  2
*ACTIVE
 70
     0
 10
0.0
 20
0.0
 11
1.0
 21
1.0
 12
336.8426817013191
 22
502.6801285647979
 13
0.0
 23
0.0
 14
10.0
 24
10.0
 15
10.0
 25
10.0
 16
0.0
 26
0.0
 36
1.0
 17
0.0
 27
0.0
 37
0.0
 40
795.8243820438597
 41
2.201079622132253
 42
50.0
 43
0.0
 44
0.0
 50
0.0
 51
0.0
 71
     0
 72
   100
 73
     1
 74
     3
 75
     0
 76
     0
 77
     0
 78
     0
281
     0
 65
     1
110
0.0
120
0.0
130
0.0
111
1.0
121
0.0
131
0.0
112
0.0
122
1.0
132
0.0
 79
     0
146
0.0
  0
ENDTAB
  0
TABLE
  2
LTYPE
  5
4BB
330
0
100
AcDbSymbolTable
 70
     1
  0
LTYPE
  5
510
330
4BB
100
AcDbSymbolTableRecord
100
AcDbLinetypeTableRecord
  2
ByBlock
 70
     0
  3

 72
    65
 73
     0
 40
0.0
  0
LTYPE
  5
511
330
4BB
100
AcDbSymbolTableRecord
100
AcDbLinetypeTableRecord
  2
ByLayer
 70
     0
  3

 72
    65
 73
     0
 40
0.0
  0
LTYPE
  5
512
330
4BB
100
AcDbSymbolTableRecord
100
AcDbLinetypeTableRecord
  2
CONTINUOUS
 70
     0
  3
Solid line
 72
    65
 73
     0
 40
0.0
  0
ENDTAB
  0
TABLE
  2
LAYER
  5
4B8
330
0
100
AcDbSymbolTable
 70
     3
  0
LAYER
  5
50A
102
{ACAD_XDICTIONARY
360
535
102
}
330
4B8
100
AcDbSymbolTableRecord
100
AcDbLayerTableRecord
  2
0
 70
     0
 62
     7
  6
CONTINUOUS
370
    -3
390
4C5
  0
LAYER
  5
526
102
{ACAD_XDICTIONARY
360
537
102
}
330
4B8
100
AcDbSymbolTableRecord
100
AcDbLayerTableRecord
  2
1外形線
 70
     0
 62
     3
  6
CONTINUOUS
370
    -3
390
4C5
  0
LAYER
  5
527
102
{ACAD_XDICTIONARY
360
539
102
}
330
4B8
100
AcDbSymbolTableRecord
100
AcDbLayerTableRecord
  2
C4
 70
     0
 62
     3
  6
CONTINUOUS
370
    -3
390
4C5
  0
ENDTAB
  0
TABLE
  2
STYLE
  5
4B9
330
0
100
AcDbSymbolTable
 70
     3
  0
STYLE
  5
50B
330
4B9
100
AcDbSymbolTableRecord
100
AcDbTextStyleTableRecord
  2
STANDARD
 70
     0
 40
0.0
 41
1.0
 50
0.0
 71
     0
 42
2.5
  3
txt
  4

  0
STYLE
  5
50F
330
4B9
100
AcDbSymbolTableRecord
100
AcDbTextStyleTableRecord
  2
Annotative
 70
     0
 40
0.0
 41
1.0
 50
0.0
 71
     0
 42
0.2
  3
txt
  4

1001
AcadAnnotative
1000
AnnotativeData
1002
{
1070
     1
1070
     1
1002
}
  0
STYLE
  5
528
330
4B9
100
AcDbSymbolTableRecord
100
AcDbTextStyleTableRecord
  2
KANJI
 70
     0
 40
0.0
 41
1.0
 50
0.0
 71
     0
 42
2.5
  3
simplex.shx
  4
extfont.shx
  0
ENDTAB
  0
TABLE
  2
VIEW
  5
4BC
330
0
100
AcDbSymbolTable
 70
     0
  0
ENDTAB
  0
TABLE
  2
UCS
  5
4BD
330
0
100
AcDbSymbolTable
 70
     0
  0
ENDTAB
  0
TABLE
  2
APPID
  5
4BF
330
0
100
AcDbSymbolTable
 70
     3
  0
APPID
  5
50C
330
4BF
100
AcDbSymbolTableRecord
100
AcDbRegAppTableRecord
  2
ACAD
 70
     0
  0
APPID
  5
513
330
4BF
100
AcDbSymbolTableRecord
100
AcDbRegAppTableRecord
  2
AcadAnnotative
 70
     0
  0
APPID
  5
5B8
330
4BF
100
AcDbSymbolTableRecord
100
AcDbRegAppTableRecord
  2
ACAD_MLEADERVER
 70
     0
  0
ENDTAB
  0
TABLE
  2
DIMSTYLE
  5
4C0
330
0
100
AcDbSymbolTable
 70
     3
100
AcDbDimStyleTable
 71
     0
  0
DIMSTYLE
105
50D
330
4C0
100
AcDbSymbolTableRecord
100
AcDbDimStyleTableRecord
  2
STANDARD
 70
     0
274
     3
279
     2
284
     8
285
     8
286
     8
340
50B
  0
DIMSTYLE
105
50E
330
4C0
100
AcDbSymbolTableRecord
100
AcDbDimStyleTableRecord
  2
Annotative
 70
     0
340
50B
1001
AcadAnnotative
1000
AnnotativeData
1002
{
1070
     1
1070
     1
1002
}
  0
DIMSTYLE
105
529
330
4C0
100
AcDbSymbolTableRecord
100
AcDbDimStyleTableRecord
  2
ISO-25
 70
     0
 41
2.5
 42
0.625
 43
3.75
 44
1.25
 73
     0
 74
     0
 77
     1
 78
     8
140
2.5
141
2.5
143
0.03937007874016
147
0.625
171
     3
172
     1
274
     3
279
     2
284
     8
285
     8
286
     8
340
50B
  0
ENDTAB
  0
TABLE
  2
BLOCK_RECORD
  5
4B7
330
0
100
AcDbSymbolTable
 70
     4
  0
BLOCK_RECORD
  5
521
330
4B7
100
AcDbSymbolTableRecord
100
AcDbBlockTableRecord
  2
*Model_Space
340
524
  0
BLOCK_RECORD
  5
51D
330
4B7
100
AcDbSymbolTableRecord
100
AcDbBlockTableRecord
  2
*Paper_Space
340
520
  0
BLOCK_RECORD
  5
52D
330
4B7
100
AcDbSymbolTableRecord
100
AcDbBlockTableRecord
  2
$MODEL_SPACE
340
0
  0
BLOCK_RECORD
  5
52F
330
4B7
100
AcDbSymbolTableRecord
100
AcDbBlockTableRecord
  2
$PAPER_SPACE
340
0
  0
BLOCK_RECORD
  5
531
330
4B7
100
AcDbSymbolTableRecord
100
AcDbBlockTableRecord
  2
2
340
0
  0
BLOCK_RECORD
  5
533
330
4B7
100
AcDbSymbolTableRecord
100
AcDbBlockTableRecord
  2
*U3
340
0
102
{BLKREFS
331
2C
102
}
  0
ENDTAB
  0
ENDSEC
  0
SECTION
  2
BLOCKS
  0
BLOCK
  5
522
330
521
100
AcDbEntity
  8
0
100
AcDbBlockBegin
  2
*Model_Space
 70
     0
 10
0.0
 20
0.0
 30
0.0
  3
*Model_Space
  1

  0
ENDBLK
  5
523
330
521
100
AcDbEntity
  8
0
100
AcDbBlockEnd
  0
BLOCK
  5
51E
330
51D
100
AcDbEntity
 67
     1
  8
0
100
AcDbBlockBegin
  2
*Paper_Space
 70
     0
 10
0.0
 20
0.0
 30
0.0
  3
*Paper_Space
  1

  0
ENDBLK
  5
51F
330
51D
100
AcDbEntity
 67
     1
  8
0
100
AcDbBlockEnd
  0
BLOCK
  5
52E
330
52D
100
AcDbEntity
  8
0
100
AcDbBlockBegin
  2
$MODEL_SPACE
 70
     0
 10
0.0
 20
0.0
 30
0.0
  3
$MODEL_SPACE
  1

  0
ENDBLK
  5
21
330
52D
100
AcDbEntity
  8
0
100
AcDbBlockEnd
  0
BLOCK
  5
530
330
52F
100
AcDbEntity
  8
0
100
AcDbBlockBegin
  2
$PAPER_SPACE
 70
     0
 10
0.0
 20
0.0
 30
0.0
  3
$PAPER_SPACE
  1

  0
ENDBLK
  5
1D
330
52F
100
AcDbEntity
  8
0
100
AcDbBlockEnd
  0
BLOCK
  5
532
330
531
100
AcDbEntity
  8
0
100
AcDbBlockBegin
  2
2
 70
     0
 10
0.0
 20
0.0
 30
0.0
  3
2
  1

  0
INSERT
  5
2C
330
531
100
AcDbEntity
  8
0
  6
Continuous
100
AcDbBlockReference
  2
*U3
 10
0.0
 20
0.0
 30
0.0
1001
ACAD
1002
{
1000
R14_HATCH_DATA
1000
2C
1011
1.0
1021
0.0
1031
0.0
1011
0.0
1021
1.0
1031
0.0
1011
0.0
1021
0.0
1031
1.0
1040
0.0
1010
0.0
1020
0.0
1030
1.0
1000
SOLID
1070
     1
1070
     1
1071
        1
1071
        7
1070
     0
1070
     1
1071
        3
1040
0.0000000000000284
1040
0.0
1040
-0.899999999998343
1040
0.2411542731875897
1040
-0.8999999999983572
1040
-0.2411542731875613
1071
        3
1005
2F
1005
2D
1005
30
1070
     0
1070
     1
1040
0.0028941747346077
1071
        1
1040
-0.5303136156475148
1040
-0.0796654556697263
1040
0.0
1002
}
  0
LINE
  5
2D
330
531
100
AcDbEntity
  8
0
100
AcDbLine
 10
-0.8999999999983572
 20
0.2411542731879876
 30
0.0
 11
-0.8999999999983572
 21
-0.2411542731880445
 31
0.0
  0
LINE
  5
2E
330
531
100
AcDbEntity
  8
0
100
AcDbLine
 10
-0.9999999999983517
 20
0.0
 30
0.0
 11
0.0
 21
0.0
 31
0.0
  0
LINE
  5
2F
330
531
100
AcDbEntity
  8
0
100
AcDbLine
 10
-0.8999999999984423
 20
0.2411542731875897
 30
0.0
 11
0.0
 21
0.0
 31
0.0
  0
LINE
  5
30
330
531
100
AcDbEntity
  8
0
100
AcDbLine
 10
-0.8999999999984423
 20
-0.2411542731875897
 30
0.0
 11
0.0
 21
0.0
 31
0.0
  0
ENDBLK
  5
32
330
531
100
AcDbEntity
  8
0
100
AcDbBlockEnd
  0
BLOCK
  5
534
330
533
100
AcDbEntity
  8
0
100
AcDbBlockBegin
  2
*U3
 70
     1
 10
0.0
 20
0.0
 30
0.0
  3
*U3
  1

  0
SOLID
  5
36E
330
533
100
AcDbEntity
  8
0
  6
Continuous
100
AcDbTrace
 10
-0.5999999999988905
 20
0.0000000000000095
 30
0.0
 11
0.0000000000000284
 21
0.0
 31
0.0
 12
-0.899999999998343
 22
0.2411542731875897
 32
0.0
 13
-0.899999999998343
 23
0.2411542731875897
 33
0.0
  0
SOLID
  5
36F
330
533
100
AcDbEntity
  8
0
  6
Continuous
100
AcDbTrace
 10
-0.5999999999988905
 20
0.0000000000000095
 30
0.0
 11
-0.899999999998343
 21
0.2411542731875897
 31
0.0
 12
-0.8999999999983572
 22
-0.2411542731875613
 32
0.0
 13
-0.8999999999983572
 23
-0.2411542731875613
 33
0.0
  0
SOLID
  5
370
330
533
100
AcDbEntity
  8
0
  6
Continuous
100
AcDbTrace
 10
-0.5999999999988905
 20
0.0000000000000095
 30
0.0
 11
-0.8999999999983572
 21
-0.2411542731875613
 31
0.0
 12
0.0000000000000284
 22
0.0
 32
0.0
 13
0.0000000000000284
 23
0.0
 33
0.0
  0
ENDBLK
  5
372
330
533
100
AcDbEntity
  8
0
100
AcDbBlockEnd
  0
ENDSEC
  0
SECTION
  2
ENTITIES
  0
LINE
  5
1D1
330
521
100
AcDbEntity
  8
1外形線
100
AcDbLine
 10
300.8861621811385
 20
391.9130168685311
 30
0.0
 11
300.8861621811386
 21
729.913016868531
 31
0.0
  0
LINE
  5
1D2
330
521
100
AcDbEntity
  8
1外形線
100
AcDbLine
 10
19.16244038989771
 20
391.9130168685311
 30
0.0
 11
19.16244038989771
 21
729.913016868531
 31
0.0
  0
LINE
  5
29F
330
521
100
AcDbEntity
  8
1外形線
100
AcDbLine
 10
19.16244038989771
 20
391.9130168685311
 30
0.0
 11
300.8861621811385
 21
391.9130168685311
 31
0.0
  0
LINE
  5
2A0
330
521
100
AcDbEntity
  8
1外形線
100
AcDbLine
 10
19.16244038989771
 20
564.4130168685312
 30
0.0
 11
300.8861621811385
 21
564.4130168685312
 31
0.0
  0
LINE
  5
2A1
330
521
100
AcDbEntity
  8
1外形線
100
AcDbLine
 10
19.16244038989771
 20
729.913016868531
 30
0.0
 11
300.8861621811385
 21
729.9130168685309
 31
0.0
  0
LINE
  5
2A2
330
521
100
AcDbEntity
  8
C4
100
AcDbLine
 10
243.3633139452821
 20
488.2747254436687
 30
0.0
 11
229.9721681186221
 21
474.8835796170085
 31
0.0
  0
LINE
  5
2A3
330
521
100
AcDbEntity
  8
C4
100
AcDbLine
 10
185.1376443394659
 20
421.9130168685309
 30
0.0
 11
253.137644339466
 21
421.9130168685311
 31
0.0
  0
LINE
  5
2A4
330
521
100
AcDbEntity
  8
C4
100
AcDbLine
 10
253.137644339466
 20
423.9130168685312
 30
0.0
 11
219.137644339466
 21
423.9130168685311
 31
0.0
  0
LINE
  5
2A5
330
521
100
AcDbEntity
  8
1外形線
100
AcDbLine
 10
172.6376443394661
 20
496.1068462238819
 30
0.0
 11
238.7672603628578
 21
496.1068462238819
 31
0.0
  0
LINE
  5
2A6
330
521
100
AcDbEntity
  8
1外形線
100
AcDbLine
 10
172.6376443394661
 20
503.3625814767871
 30
0.0
 11
242.6376443394662
 21
503.3625814767871
 31
0.0
  0
LINE
  5
2A7
330
521
100
AcDbEntity
  8
C4
100
AcDbLine
 10
172.637644339466
 20
503.9130168685312
 30
0.0
 11
242.6376443394662
 21
503.913016868531
 31
0.0
  0
LINE
  5
2A8
330
521
100
AcDbEntity
  8
C4
100
AcDbLine
 10
236.9993529146035
 20
494.6386864743471
 30
0.0
 11
223.6082070879433
 21
481.2475406476874
 31
0.0
  0
LWPOLYLINE
  5
2A9
330
521
100
AcDbEntity
  8
C4
100
AcDbPolyline
 90
        5
 70
     0
 43
0.0
 10
235.7880680790596
 20
664.0386445576925
 42
-0.1522155302173961
 10
236.5592465276972
 20
662.5691588746778
 42
-0.1069431103829815
 10
236.4847672201605
 20
660.2353436987932
 42
-0.0743431597850545
 10
235.5313493644786
 20
657.9380927407981
 42
-0.06097361952383
 10
233.6667477354998
 20
655.5533631834537
 42
-0.060973619523824
  0
LINE
  5
2AA
330
521
100
AcDbEntity
  8
C4
100
AcDbLine
 10
241.6624403898972
 20
596.4130168685307
 30
0.0
 11
209.6624403898972
 21
596.4130168685312
 31
0.0
  0
LINE
  5
2AB
330
521
100
AcDbEntity
  8
C4
100
AcDbLine
 10
179.6624403898972
 20
594.4130168685314
 30
0.0
 11
241.6624403898972
 21
594.4130168685304
 31
0.0
  0
LWPOLYLINE
  5
2AC
330
521
100
AcDbEntity
  8
C4
100
AcDbPolyline
 90
        2
 70
     0
 43
0.0
 10
237.8942090315257
 20
666.1447855101584
 42
0.1989123673796592
 10
231.162440389898
 20
668.9331753802788
 42
0.1989123673796592
  0
LWPOLYLINE
  5
2AD
330
521
100
AcDbEntity
  8
C4
100
AcDbPolyline
 90
        2
 70
     0
 43
0.0
 10
238.2335082017634
 20
666.4840846803964
 42
0.1989123673796589
 10
231.162440389898
 20
669.4130168685309
  0
LINE
  5
2AE
330
521
100
AcDbEntity
  8
C4
100
AcDbLine
 10
209.6624403898977
 20
625.4130168685312
 30
0.0
 11
209.6624403898972
 21
594.4130168685312
 31
0.0
  0
LINE
  5
2AF
330
521
100
AcDbEntity
  8
C4
100
AcDbLine
 10
179.6624403898974
 20
605.9130168685316
 30
0.0
 11
179.6624403898972
 21
594.4130168685314
 31
0.0
  0
LINE
  5
2B0
330
521
100
AcDbEntity
  8
1外形線
100
AcDbLine
 10
179.9710832928517
 20
594.4130168685314
 30
0.0
 11
179.9710832928518
 21
605.9130168685316
 31
0.0
  0
LINE
  5
2B1
330
521
100
AcDbEntity
  8
1外形線
100
AcDbLine
 10
185.3216183102412
 20
594.4130168685314
 30
0.0
 11
185.3216183102414
 21
605.9130168685307
 31
0.0
  0
LINE
  5
2B2
330
521
100
AcDbEntity
  8
1外形線
100
AcDbLine
 10
226.2146752416811
 20
596.4130168685309
 30
0.0
 11
226.214675241682
 21
648.1012906896361
 31
0.0
  0
LINE
  5
2B3
330
521
100
AcDbEntity
  8
1外形線
100
AcDbLine
 10
234.2347525912169
 20
596.4130168685309
 30
0.0
 11
234.2347525912181
 21
656.1606105355744
 31
0.0
  0
LINE
  5
2B4
330
521
100
AcDbEntity
  8
1外形線
100
AcDbLine
 10
129.0032624695536
 20
594.4130168685312
 30
0.0
 11
129.0032624695536
 21
613.5721947888781
 31
0.0
  0
LINE
  5
2B5
330
521
100
AcDbEntity
  8
1外形線
100
AcDbLine
 10
118.2496038211511
 20
594.4130168685312
 30
0.0
 11
118.2496038211511
 21
608.2216597714857
 31
0.0
  0
LINE
  5
2B6
330
521
100
AcDbEntity
  8
1外形線
100
AcDbLine
 10
87.07527695864452
 20
594.4130168685312
 30
0.0
 11
87.07527695864452
 21
608.2216597714841
 31
0.0
  0
LINE
  5
2B7
330
521
100
AcDbEntity
  8
1外形線
100
AcDbLine
 10
76.32161831024212
 20
594.4130168685312
 30
0.0
 11
76.32161831024212
 21
613.5721947888722
 31
0.0
  0
LINE
  5
2B8
330
521
100
AcDbEntity
  8
C4
100
AcDbLine
 10
135.6624403898978
 20
637.9130168685312
 30
0.0
 11
135.6624403898978
 21
594.4130168685312
 31
0.0
  0
LINE
  5
2B9
330
521
100
AcDbEntity
  8
C4
100
AcDbLine
 10
69.66244038989782
 20
637.9130168685312
 30
0.0
 11
69.66244038989782
 21
594.4130168685312
 31
0.0
  0
TEXT
  5
2BA
330
521
100
AcDbEntity
  8
1外形線
100
AcDbText
 10
69.57095368423178
 20
534.6588504885036
 30
0.0
 40
10.0
  1
SCM-77
  7
KANJI
100
AcDbText
  0
LINE
  5
2BB
330
521
100
AcDbEntity
  8
C4
100
AcDbLine
 10
69.16244038989771
 20
421.913016868531
 30
0.0
 11
110.1624403898977
 21
421.913016868531
 31
0.0
  0
LINE
  5
2BC
330
521
100
AcDbEntity
  8
C4
100
AcDbLine
 10
94.66244038989772
 20
436.4130168685311
 30
0.0
 11
110.1624403898977
 21
436.4130168685311
 31
0.0
  0
LINE
  5
2BD
330
521
100
AcDbEntity
  8
C4
100
AcDbLine
 10
94.66244038989772
 20
438.413016868531
 30
0.0
 11
110.1624403898977
 21
438.413016868531
 31
0.0
  0
LINE
  5
2BE
330
521
100
AcDbEntity
  8
C4
100
AcDbLine
 10
110.1624403898975
 20
504.4130168685311
 30
0.0
 11
97.1624403898976
 21
504.4130168685311
 31
0.0
  0
LINE
  5
2BF
330
521
100
AcDbEntity
  8
C4
100
AcDbLine
 10
110.1624403898975
 20
501.413016868531
 30
0.0
 11
97.66244038989761
 21
501.413016868531
 31
0.0
  0
LINE
  5
2C0
330
521
100
AcDbEntity
  8
C4
100
AcDbLine
 10
69.16244038989782
 20
594.4130168685312
 30
0.0
 11
136.1624403898978
 21
594.4130168685312
 31
0.0
  0
ARC
  5
2C1
330
521
100
AcDbEntity
  8
C4
100
AcDbCircle
 10
97.1624403898976
 20
476.413016868531
 30
0.0
 40
28.0
100
AcDbArc
 50
90.0
 51
180.0
  0
ARC
  5
2C2
330
521
100
AcDbEntity
  8
C4
100
AcDbCircle
 10
97.66244038989761
 20
476.413016868531
 30
0.0
 40
25.0
100
AcDbArc
 50
90.0
 51
180.0
  0
LINE
  5
2C3
330
521
100
AcDbEntity
  8
C4
100
AcDbLine
 10
75.66244038989769
 20
488.2873589555692
 30
0.0
 11
75.66244038989769
 21
469.47419972841
 31
0.0
  0
LINE
  5
2C4
330
521
100
AcDbEntity
  8
C4
100
AcDbLine
 10
80.6624403898977
 20
494.7433196483546
 30
0.0
 11
80.66244038989756
 21
443.4424541200541
 31
0.0
  0
LINE
  5
2C5
330
521
100
AcDbEntity
  8
1外形線
100
AcDbLine
 10
77.4918433428254
 20
421.913016868531
 30
0.0
 11
77.4918433428255
 21
443.2424198214551
 31
0.0
  0
LINE
  5
2C6
330
521
100
AcDbEntity
  8
1外形線
100
AcDbLine
 10
89.46296196318044
 20
421.913016868531
 30
0.0
 11
89.46296196318044
 21
436.9596853145249
 31
0.0
  0
LINE
  5
2C7
330
521
100
AcDbEntity
  8
C4
100
AcDbLine
 10
69.66244038989771
 20
470.4130168685311
 30
0.0
 11
69.66244038989771
 21
421.913016868531
 31
0.0
  0
LINE
  5
2C8
330
521
100
AcDbEntity
  8
1外形線
100
AcDbLine
 10
69.16244038989771
 20
423.9130168685311
 30
0.0
 11
69.66244038989771
 21
423.9130168685311
 31
0.0
  0
LINE
  5
2C9
330
521
100
AcDbEntity
  8
C4
100
AcDbLine
 10
69.16244038989771
 20
423.9130168685311
 30
0.0
 11
69.16244038989771
 21
421.913016868531
 31
0.0
  0
ARC
  5
2CA
330
521
100
AcDbEntity
  8
C4
100
AcDbCircle
 10
94.66244038989772
 20
461.4130168685311
 30
0.0
 40
25.0
100
AcDbArc
 50
180.0
 51
270.0
  0
ARC
  5
2CB
330
521
100
AcDbEntity
  8
C4
100
AcDbCircle
 10
94.66244038989772
 20
460.413016868531
 30
0.0
 40
22.0
100
AcDbArc
 50
180.0
 51
270.0
  0
LINE
  5
2CC
330
521
100
AcDbEntity
  8
C4
100
AcDbLine
 10
71.16244038989769
 20
475.4130168685311
 30
0.0
 11
72.6624403898977
 21
475.4130168685311
 31
0.0
  0
LINE
  5
2CD
330
521
100
AcDbEntity
  8
C4
100
AcDbLine
 10
71.16244038989769
 20
470.4130168685311
 30
0.0
 11
71.79212361223246
 21
474.981290507392
 31
0.0
  0
LINE
  5
2CE
330
521
100
AcDbEntity
  8
C4
100
AcDbLine
 10
69.16244038989771
 20
470.4130168685311
 30
0.0
 11
69.16244038989759
 21
476.4130168685308
 31
0.0
  0
LINE
  5
2CF
330
521
100
AcDbEntity
  8
C4
100
AcDbLine
 10
71.16244038989769
 20
475.4130168685311
 30
0.0
 11
71.16244038989769
 21
470.4130168685311
 31
0.0
  0
LINE
  5
2D0
330
521
100
AcDbEntity
  8
C4
100
AcDbLine
 10
71.16244038989769
 20
470.4130168685311
 30
0.0
 11
69.16244038989771
 21
470.4130168685311
 31
0.0
  0
LINE
  5
2D1
330
521
100
AcDbEntity
  8
C4
100
AcDbLine
 10
80.6624403898977
 20
472.413016868531
 30
0.0
 11
80.6624403898977
 21
447.9210834837013
 31
0.0
  0
LINE
  5
2D2
330
521
100
AcDbEntity
  8
C4
100
AcDbLine
 10
72.66244038989757
 20
476.413016868531
 30
0.0
 11
72.6624403898977
 21
460.4130168685309
 31
0.0
  0
ARC
  5
2D3
330
521
100
AcDbEntity
  8
C4
100
AcDbCircle
 10
75.7870612596406
 20
469.4255004741003
 30
0.0
 40
5.0
100
AcDbArc
 50
12.81900164611974
 51
91.4281978706642
  0
LINE
  5
2D4
330
521
100
AcDbEntity
  8
C4
100
AcDbLine
 10
72.6624403898977
 20
469.47419972841
 30
0.0
 11
75.66244038989769
 21
469.47419972841
 31
0.0
  0
LINE
  5
2D5
330
521
100
AcDbEntity
  8
C4
100
AcDbLine
 10
72.6624403898977
 20
470.5348599001896
 30
0.0
 11
75.66244038989769
 21
470.5348599001896
 31
0.0
  0
ARC
  5
2D6
330
521
100
AcDbEntity
  8
C4
100
AcDbCircle
 10
72.2874403898977
 20
474.9130168685311
 30
0.0
 40
0.5
100
AcDbArc
 50
90.0
 51
172.1518990134256
  0
LINE
  5
2D7
330
521
100
AcDbEntity
  8
C4
100
AcDbLine
 10
69.66244038989782
 20
596.4130168685312
 30
0.0
 11
69.16244038989782
 21
596.4130168685312
 31
0.0
  0
LINE
  5
2D8
330
521
100
AcDbEntity
  8
C4
100
AcDbLine
 10
69.16244038989782
 20
596.4130168685312
 30
0.0
 11
69.16244038989782
 21
594.4130168685312
 31
0.0
  0
ARC
  5
2D9
330
521
100
AcDbEntity
  8
C4
100
AcDbCircle
 10
122.6624403898977
 20
476.413016868531
 30
0.0
 40
25.0
100
AcDbArc
 50
0.0
 51
90.0
  0
ARC
  5
2DA
330
521
100
AcDbEntity
  8
C4
100
AcDbCircle
 10
123.1624403898977
 20
476.413016868531
 30
0.0
 40
28.0
100
AcDbArc
 50
0.0
 51
90.0
  0
LINE
  5
2DB
330
521
100
AcDbEntity
  8
C4
100
AcDbLine
 10
144.6624403898974
 20
488.2873589555692
 30
0.0
 11
144.6624403898975
 21
469.4741997284101
 31
0.0
  0
LINE
  5
2DC
330
521
100
AcDbEntity
  8
C4
100
AcDbLine
 10
139.6624403898975
 20
494.7433196483546
 30
0.0
 11
139.6624403898978
 21
443.4424541200542
 31
0.0
  0
LINE
  5
2DD
330
521
100
AcDbEntity
  8
C4
100
AcDbLine
 10
170.6376443394658
 20
436.4130168685312
 30
0.0
 11
170.6376443394661
 21
504.4130168685312
 31
0.0
  0
LINE
  5
2DE
330
521
100
AcDbEntity
  8
C4
100
AcDbLine
 10
172.6376443394661
 20
504.4130168685312
 30
0.0
 11
172.6376443394659
 21
470.4130168685312
 31
0.0
  0
LINE
  5
2DF
330
521
100
AcDbEntity
  8
C4
100
AcDbLine
 10
150.6624403898976
 20
470.4130168685312
 30
0.0
 11
150.6624403898977
 21
421.9130168685311
 31
0.0
  0
LINE
  5
2E0
330
521
100
AcDbEntity
  8
1外形線
100
AcDbLine
 10
130.8619188166149
 20
421.913016868531
 30
0.0
 11
130.8619188166149
 21
436.9596853145249
 31
0.0
  0
LINE
  5
2E1
330
521
100
AcDbEntity
  8
1外形線
100
AcDbLine
 10
142.8330374369699
 20
421.9130168685311
 30
0.0
 11
142.8330374369699
 21
443.2424198214552
 31
0.0
  0
LINE
  5
2E2
330
521
100
AcDbEntity
  8
C4
100
AcDbLine
 10
151.1624403898977
 20
421.9130168685311
 30
0.0
 11
110.1624403898977
 21
421.913016868531
 31
0.0
  0
LINE
  5
2E3
330
521
100
AcDbEntity
  8
1外形線
100
AcDbLine
 10
151.1624403898977
 20
423.9130168685312
 30
0.0
 11
150.6624403898977
 21
423.9130168685312
 31
0.0
  0
LINE
  5
2E4
330
521
100
AcDbEntity
  8
C4
100
AcDbLine
 10
151.1624403898977
 20
423.9130168685312
 30
0.0
 11
151.1624403898977
 21
421.9130168685311
 31
0.0
  0
ARC
  5
2E5
330
521
100
AcDbEntity
  8
C4
100
AcDbCircle
 10
125.6624403898976
 20
460.4130168685312
 30
0.0
 40
22.0
100
AcDbArc
 50
270.0
 51
0.0
  0
ARC
  5
2E6
330
521
100
AcDbEntity
  8
C4
100
AcDbCircle
 10
125.6624403898976
 20
461.4130168685312
 30
0.0
 40
25.0
100
AcDbArc
 50
270.0
 51
0.0
  0
LINE
  5
2E7
330
521
100
AcDbEntity
  8
C4
100
AcDbLine
 10
125.6624403898977
 20
438.413016868531
 30
0.0
 11
110.1624403898977
 21
438.413016868531
 31
0.0
  0
LINE
  5
2E8
330
521
100
AcDbEntity
  8
C4
100
AcDbLine
 10
125.6624403898977
 20
436.4130168685312
 30
0.0
 11
110.1624403898977
 21
436.4130168685311
 31
0.0
  0
LINE
  5
2E9
330
521
100
AcDbEntity
  8
C4
100
AcDbLine
 10
139.6624403898975
 20
472.4130168685312
 30
0.0
 11
139.6624403898975
 21
447.9210834837014
 31
0.0
  0
ARC
  5
2EA
330
521
100
AcDbEntity
  8
C4
100
AcDbCircle
 10
144.5378195201547
 20
469.4255004741004
 30
0.0
 40
5.0
100
AcDbArc
 50
88.57180212933581
 51
167.1809983538802
  0
LINE
  5
2EB
330
521
100
AcDbEntity
  8
C4
100
AcDbLine
 10
149.1624403898976
 20
470.4130168685312
 30
0.0
 11
148.5327571675627
 21
474.981290507392
 31
0.0
  0
LINE
  5
2EC
330
521
100
AcDbEntity
  8
C4
100
AcDbLine
 10
149.1624403898974
 20
475.4130168685311
 30
0.0
 11
149.1624403898976
 21
470.4130168685312
 31
0.0
  0
LINE
  5
2ED
330
521
100
AcDbEntity
  8
C4
100
AcDbLine
 10
147.6624403898977
 20
476.4130168685311
 30
0.0
 11
147.6624403898975
 21
460.413016868531
 31
0.0
  0
LINE
  5
2EE
330
521
100
AcDbEntity
  8
C4
100
AcDbLine
 10
151.1624403898975
 20
470.4130168685312
 30
0.0
 11
151.1624403898977
 21
476.4130168685309
 31
0.0
  0
LINE
  5
2EF
330
521
100
AcDbEntity
  8
C4
100
AcDbLine
 10
147.6624403898975
 20
470.5348599001897
 30
0.0
 11
144.6624403898975
 21
470.5348599001897
 31
0.0
  0
LINE
  5
2F0
330
521
100
AcDbEntity
  8
C4
100
AcDbLine
 10
147.6624403898975
 20
469.4741997284101
 30
0.0
 11
144.6624403898975
 21
469.4741997284101
 31
0.0
  0
LINE
  5
2F1
330
521
100
AcDbEntity
  8
C4
100
AcDbLine
 10
149.1624403898976
 20
470.4130168685312
 30
0.0
 11
151.1624403898975
 21
470.4130168685312
 31
0.0
  0
LINE
  5
2F2
330
521
100
AcDbEntity
  8
C4
100
AcDbLine
 10
149.1624403898974
 20
475.4130168685311
 30
0.0
 11
147.6624403898975
 21
475.4130168685311
 31
0.0
  0
ARC
  5
2F3
330
521
100
AcDbEntity
  8
C4
100
AcDbCircle
 10
148.0374403898975
 20
474.9130168685312
 30
0.0
 40
0.5
100
AcDbArc
 50
7.848100986574213
 51
90.0
  0
LINE
  5
2F4
330
521
100
AcDbEntity
  8
1外形線
100
AcDbLine
 10
219.137644339466
 20
421.9130168685311
 30
0.0
 11
219.137644339466
 21
457.9130168685312
 31
0.0
  0
LINE
  5
2F5
330
521
100
AcDbEntity
  8
1外形線
100
AcDbLine
 10
191.9670472923901
 20
421.9130168685309
 30
0.0
 11
191.9670472923901
 21
434.4130168685314
 31
0.0
  0
LINE
  5
2F6
330
521
100
AcDbEntity
  8
1外形線
100
AcDbLine
 10
185.6843127854608
 20
421.9130168685309
 30
0.0
 11
185.6843127854608
 21
434.4130168685314
 31
0.0
  0
LINE
  5
2F7
330
521
100
AcDbEntity
  8
1外形線
100
AcDbLine
 10
185.1376443394659
 20
421.9130168685309
 30
0.0
 11
185.1376443394659
 21
434.4130168685314
 31
0.0
  0
LINE
  5
2F8
330
521
100
AcDbEntity
  8
1外形線
100
AcDbLine
 10
235.8379606822144
 20
423.9130168685312
 30
0.0
 11
235.8379606822144
 21
480.7493721806007
 31
0.0
  0
LINE
  5
2F9
330
521
100
AcDbEntity
  8
C4
100
AcDbLine
 10
213.7087121513317
 20
458.620123649718
 30
0.0
 11
199.4135530014043
 21
444.3249644997909
 31
0.0
  0
LINE
  5
2FA
330
521
100
AcDbEntity
  8
1外形線
100
AcDbLine
 10
170.637644339466
 20
470.4130168685312
 30
0.0
 11
206.6376443394663
 21
470.4130168685312
 31
0.0
  0
LINE
  5
2FB
330
521
100
AcDbEntity
  8
C4
100
AcDbLine
 10
207.3447511206528
 20
464.9840846803969
 30
0.0
 11
193.0495919707256
 21
450.6889255304695
 31
0.0
  0
ARC
  5
2FC
330
521
100
AcDbEntity
  8
1外形線
100
AcDbCircle
 10
183.1376443394663
 20
434.413016868531
 30
0.0
 40
8.829402952924141
100
AcDbArc
 50
45.0
 51
90.0
  0
LINE
  5
2FD
330
521
100
AcDbEntity
  8
1外形線
100
AcDbLine
 10
170.6376443394658
 20
443.2424198214552
 30
0.0
 11
183.1376443394663
 21
443.2424198214552
 31
0.0
  0
LINE
  5
2FE
330
521
100
AcDbEntity
  8
1外形線
100
AcDbLine
 10
170.6376443394658
 20
436.9596853145261
 30
0.0
 11
183.1376443394663
 21
436.9596853145261
 31
0.0
  0
LINE
  5
2FF
330
521
100
AcDbEntity
  8
1外形線
100
AcDbLine
 10
170.6376443394658
 20
436.4130168685312
 30
0.0
 11
183.1376443394663
 21
436.4130168685312
 31
0.0
  0
ARC
  5
300
330
521
100
AcDbEntity
  8
1外形線
100
AcDbCircle
 10
183.1376443394659
 20
434.4130168685314
 30
0.0
 40
2.546668445994923
100
AcDbArc
 50
0.0
 51
44.99999999999538
  0
ARC
  5
301
330
521
100
AcDbEntity
  8
1外形線
100
AcDbCircle
 10
183.1376443394659
 20
434.4130168685314
 30
0.0
 40
2.0
100
AcDbArc
 50
0.0
 51
44.99999999999538
  0
ARC
  5
302
330
521
100
AcDbEntity
  8
1外形線
100
AcDbCircle
 10
183.1376443394663
 20
434.413016868531
 30
0.0
 40
2.546668445994923
100
AcDbArc
 50
45.0000000000046
 51
90.0
  0
ARC
  5
303
330
521
100
AcDbEntity
  8
1外形線
100
AcDbCircle
 10
183.1376443394663
 20
434.413016868531
 30
0.0
 40
2.0
100
AcDbArc
 50
45.0000000000046
 51
90.0
  0
LWPOLYLINE
  5
304
330
521
100
AcDbEntity
  8
C4
100
AcDbPolyline
 90
        5
 70
     0
 43
0.0
 10
193.0495919707275
 20
450.6889255304713
 42
0.0609736195238286
 10
191.1849903417488
 20
448.3041959731272
 42
0.0743431597850519
 10
190.2315724860668
 20
446.0069450151319
 42
0.1069431103829685
 10
190.1570931785301
 20
443.6731298392476
 42
0.152215530217387
 10
190.9282716271677
 20
442.2036441562329
 42
0.1522155302173993
  0
LWPOLYLINE
  5
305
330
521
100
AcDbEntity
  8
C4
100
AcDbPolyline
 90
        5
 70
     0
 43
0.0
 10
199.4135530014061
 20
444.3249644997926
 42
-0.0609736195238286
 10
197.028823444062
 20
442.460362870814
 42
-0.0743431597850519
 10
194.7315724860667
 20
441.506945015132
 42
-0.1069431103829685
 10
192.3977573101824
 20
441.4324657075954
 42
-0.152215530217387
 10
190.9282716271676
 20
442.2036441562329
 42
-0.1522155302173993
  0
ARC
  5
306
330
521
100
AcDbEntity
  8
1外形線
100
AcDbCircle
 10
183.1376443394659
 20
434.4130168685314
 30
0.0
 40
8.829402952924141
100
AcDbArc
 50
0.0
 51
45.0
  0
ARC
  5
307
330
521
100
AcDbEntity
  8
1外形線
100
AcDbCircle
 10
206.637644339466
 20
457.9130168685312
 30
0.0
 40
12.5
100
AcDbArc
 50
0.0
 51
45.0
  0
LINE
  5
308
330
521
100
AcDbEntity
  8
C4
100
AcDbLine
 10
210.5267316359921
 20
461.8021041650575
 30
0.0
 11
213.7087121513317
 21
458.620123649718
 31
0.0
  0
ARC
  5
309
330
521
100
AcDbEntity
  8
1外形線
100
AcDbCircle
 10
206.6376443394663
 20
457.9130168685312
 30
0.0
 40
12.5
100
AcDbArc
 50
45.0
 51
90.0
  0
LINE
  5
30A
330
521
100
AcDbEntity
  8
C4
100
AcDbLine
 10
210.5267316359923
 20
461.8021041650573
 30
0.0
 11
207.3447511206528
 21
464.9840846803969
 31
0.0
  0
LINE
  5
30B
330
521
100
AcDbEntity
  8
C4
100
AcDbLine
 10
226.7901876032827
 20
478.065560132348
 30
0.0
 11
229.9721681186221
 21
474.8835796170083
 31
0.0
  0
LINE
  5
30C
330
521
100
AcDbEntity
  8
C4
100
AcDbLine
 10
226.7901876032827
 20
478.065560132348
 30
0.0
 11
223.6082070879432
 21
481.2475406476874
 31
0.0
  0
LINE
  5
30D
330
521
100
AcDbEntity
  8
C4
100
AcDbLine
 10
110.1624403898975
 20
501.413016868531
 30
0.0
 11
122.6624403898975
 21
501.413016868531
 31
0.0
  0
LINE
  5
30E
330
521
100
AcDbEntity
  8
C4
100
AcDbLine
 10
110.1624403898975
 20
504.4130168685311
 30
0.0
 11
123.1624403898976
 21
504.4130168685311
 31
0.0
  0
LINE
  5
30F
330
521
100
AcDbEntity
  8
C4
100
AcDbLine
 10
136.1624403898978
 20
596.4130168685312
 30
0.0
 11
135.6624403898978
 21
596.4130168685312
 31
0.0
  0
LINE
  5
310
330
521
100
AcDbEntity
  8
C4
100
AcDbLine
 10
136.1624403898978
 20
594.4130168685312
 30
0.0
 11
136.1624403898978
 21
596.4130168685312
 31
0.0
  0
LINE
  5
311
330
521
100
AcDbEntity
  8
1外形線
100
AcDbLine
 10
172.637644339466
 20
487.1133332112796
 30
0.0
 11
229.4739996515356
 21
487.1133332112796
 31
0.0
  0
LINE
  5
312
330
521
100
AcDbEntity
  8
C4
100
AcDbLine
 10
170.6376443394661
 20
504.4130168685312
 30
0.0
 11
172.6376443394661
 21
504.4130168685312
 31
0.0
  0
TEXT
  5
313
330
521
100
AcDbEntity
  8
1外形線
100
AcDbText
 10
69.57095368423178
 20
700.1588504885035
 30
0.0
 40
10.0
  1
SCM-66
  7
KANJI
100
AcDbText
  0
LINE
  5
314
330
521
100
AcDbEntity
  8
C4
100
AcDbLine
 10
110.6624403898978
 20
666.9130168685312
 30
0.0
 11
94.66244038989781
 21
666.9130168685312
 31
0.0
  0
LINE
  5
315
330
521
100
AcDbEntity
  8
C4
100
AcDbLine
 10
111.1624403898979
 20
669.9130168685313
 30
0.0
 11
94.16244038989772
 21
669.9130168685313
 31
0.0
  0
LINE
  5
316
330
521
100
AcDbEntity
  8
C4
100
AcDbLine
 10
91.66244038989781
 20
609.9130168685312
 30
0.0
 11
113.6624403898978
 21
609.9130168685312
 31
0.0
  0
LINE
  5
317
330
521
100
AcDbEntity
  8
C4
100
AcDbLine
 10
90.66244038989781
 20
607.9130168685312
 30
0.0
 11
114.6624403898978
 21
607.9130168685312
 31
0.0
  0
ARC
  5
318
330
521
100
AcDbEntity
  8
C4
100
AcDbCircle
 10
94.66244038989781
 20
644.9130168685313
 30
0.0
 40
22.0
100
AcDbArc
 50
90.0
 51
180.0
  0
LINE
  5
319
330
521
100
AcDbEntity
  8
C4
100
AcDbLine
 10
75.66244038989781
 20
656.0035533749404
 30
0.0
 11
75.66244038989781
 21
636.97419972841
 31
0.0
  0
ARC
  5
31A
330
521
100
AcDbEntity
  8
C4
100
AcDbCircle
 10
94.16244038989772
 20
644.9130168685313
 30
0.0
 40
25.0
100
AcDbArc
 50
90.0
 51
180.0
  0
LINE
  5
31B
330
521
100
AcDbEntity
  8
C4
100
AcDbLine
 10
80.66244038989781
 20
661.8835796170083
 30
0.0
 11
80.6624403898977
 21
613.4210834837015
 31
0.0
  0
LINE
  5
31C
330
521
100
AcDbEntity
  8
C4
100
AcDbLine
 10
71.16244038989781
 20
642.9130168685312
 30
0.0
 11
72.66244038989781
 21
642.9130168685312
 31
0.0
  0
LINE
  5
31D
330
521
100
AcDbEntity
  8
C4
100
AcDbLine
 10
71.16244038989781
 20
637.9130168685312
 30
0.0
 11
71.79212361223256
 21
642.4812905073919
 31
0.0
  0
ARC
  5
31E
330
521
100
AcDbEntity
  8
C4
100
AcDbCircle
 10
91.66244038989781
 20
628.9130168685312
 30
0.0
 40
19.0
100
AcDbArc
 50
180.0
 51
270.0
  0
ARC
  5
31F
330
521
100
AcDbEntity
  8
C4
100
AcDbCircle
 10
90.66244038989781
 20
628.9130168685312
 30
0.0
 40
21.0
100
AcDbArc
 50
180.0
 51
270.0
  0
LINE
  5
320
330
521
100
AcDbEntity
  8
C4
100
AcDbLine
 10
71.16244038989781
 20
642.9130168685312
 30
0.0
 11
71.16244038989781
 21
637.9130168685312
 31
0.0
  0
LINE
  5
321
330
521
100
AcDbEntity
  8
C4
100
AcDbLine
 10
69.16244038989782
 20
637.9130168685312
 30
0.0
 11
69.16244038989771
 21
644.9130168685313
 31
0.0
  0
LINE
  5
322
330
521
100
AcDbEntity
  8
C4
100
AcDbLine
 10
71.16244038989781
 20
637.9130168685312
 30
0.0
 11
69.16244038989782
 21
637.9130168685312
 31
0.0
  0
LINE
  5
323
330
521
100
AcDbEntity
  8
C4
100
AcDbLine
 10
80.66244038989781
 20
637.9130168685312
 30
0.0
 11
80.66244038989781
 21
613.4210834837015
 31
0.0
  0
ARC
  5
324
330
521
100
AcDbEntity
  8
C4
100
AcDbCircle
 10
75.78706125964072
 20
636.9255004741003
 30
0.0
 40
5.0
100
AcDbArc
 50
12.81900164611974
 51
91.4281978706642
  0
LINE
  5
325
330
521
100
AcDbEntity
  8
C4
100
AcDbLine
 10
72.66244038989781
 20
644.9130168685313
 30
0.0
 11
72.66244038989781
 21
628.9130168685312
 31
0.0
  0
LINE
  5
326
330
521
100
AcDbEntity
  8
C4
100
AcDbLine
 10
72.66244038989781
 20
638.0348599001896
 30
0.0
 11
75.66244038989781
 21
638.0348599001896
 31
0.0
  0
LINE
  5
327
330
521
100
AcDbEntity
  8
C4
100
AcDbLine
 10
72.66244038989781
 20
636.97419972841
 30
0.0
 11
75.66244038989781
 21
636.97419972841
 31
0.0
  0
ARC
  5
328
330
521
100
AcDbEntity
  8
C4
100
AcDbCircle
 10
72.28744038989781
 20
642.4130168685312
 30
0.0
 40
0.5
100
AcDbArc
 50
90.0
 51
172.1518990134256
  0
LINE
  5
329
330
521
100
AcDbEntity
  8
1外形線
100
AcDbLine
 10
168.1624403898979
 20
654.4652517203152
 30
0.0
 11
219.8507142110031
 21
654.4652517203152
 31
0.0
  0
LINE
  5
32A
330
521
100
AcDbEntity
  8
1外形線
100
AcDbLine
 10
168.162440389898
 20
662.4853290698511
 30
0.0
 11
227.9100340569417
 21
662.4853290698511
 31
0.0
  0
LINE
  5
32B
330
521
100
AcDbEntity
  8
1外形線
100
AcDbLine
 10
168.162440389898
 20
668.9331753802788
 30
0.0
 11
231.162440389898
 21
668.9331753802788
 31
0.0
  0
LINE
  5
32C
330
521
100
AcDbEntity
  8
1外形線
100
AcDbLine
 10
166.1624403898977
 20
608.2216597714857
 30
0.0
 11
177.6624403898977
 21
608.2216597714857
 31
0.0
  0
LINE
  5
32D
330
521
100
AcDbEntity
  8
1外形線
100
AcDbLine
 10
166.1624403898977
 20
613.5721947888753
 30
0.0
 11
177.6624403898972
 21
613.5721947888753
 31
0.0
  0
LINE
  5
32E
330
521
100
AcDbEntity
  8
C4
100
AcDbLine
 10
168.162440389898
 20
669.4130168685314
 30
0.0
 11
231.162440389898
 21
669.4130168685309
 31
0.0
  0
LINE
  5
32F
330
521
100
AcDbEntity
  8
C4
100
AcDbLine
 10
177.6624403898977
 20
607.9130168685312
 30
0.0
 11
166.1624403898977
 21
607.9130168685312
 31
0.0
  0
LINE
  5
330
330
521
100
AcDbEntity
  8
C4
100
AcDbLine
 10
197.1624403898978
 20
637.9130168685312
 30
0.0
 11
166.1624403898978
 21
637.9130168685312
 31
0.0
  0
LINE
  5
331
330
521
100
AcDbEntity
  8
C4
100
AcDbLine
 10
168.162440389898
 20
669.9130168685313
 30
0.0
 11
168.1624403898978
 21
637.9130168685312
 31
0.0
  0
LINE
  5
332
330
521
100
AcDbEntity
  8
C4
100
AcDbLine
 10
166.1624403898977
 20
607.9130168685312
 30
0.0
 11
166.162440389898
 21
669.9130168685313
 31
0.0
  0
LINE
  5
333
330
521
100
AcDbEntity
  8
C4
100
AcDbLine
 10
129.6624403898978
 20
656.0035533749404
 30
0.0
 11
129.6624403898977
 21
636.97419972841
 31
0.0
  0
ARC
  5
334
330
521
100
AcDbEntity
  8
C4
100
AcDbCircle
 10
110.6624403898978
 20
644.9130168685313
 30
0.0
 40
22.0
100
AcDbArc
 50
0.0
 51
90.0
  0
ARC
  5
335
330
521
100
AcDbEntity
  8
C4
100
AcDbCircle
 10
111.1624403898979
 20
644.9130168685313
 30
0.0
 40
25.0
100
AcDbArc
 50
0.0
 51
90.0
  0
LINE
  5
336
330
521
100
AcDbEntity
  8
C4
100
AcDbLine
 10
124.6624403898978
 20
661.8835796170083
 30
0.0
 11
124.6624403898979
 21
613.4210834837015
 31
0.0
  0
ARC
  5
337
330
521
100
AcDbEntity
  8
C4
100
AcDbCircle
 10
114.6624403898978
 20
628.9130168685312
 30
0.0
 40
21.0
100
AcDbArc
 50
270.0
 51
0.0
  0
ARC
  5
338
330
521
100
AcDbEntity
  8
C4
100
AcDbCircle
 10
113.6624403898978
 20
628.9130168685312
 30
0.0
 40
19.0
100
AcDbArc
 50
270.0
 51
0.0
  0
LINE
  5
339
330
521
100
AcDbEntity
  8
C4
100
AcDbLine
 10
134.1624403898978
 20
637.9130168685312
 30
0.0
 11
133.532757167563
 21
642.4812905073919
 31
0.0
  0
LINE
  5
33A
330
521
100
AcDbEntity
  8
C4
100
AcDbLine
 10
136.1624403898978
 20
637.9130168685312
 30
0.0
 11
136.1624403898979
 21
644.9130168685313
 31
0.0
  0
LINE
  5
33B
330
521
100
AcDbEntity
  8
C4
100
AcDbLine
 10
134.1624403898978
 20
642.9130168685312
 30
0.0
 11
134.1624403898978
 21
637.9130168685312
 31
0.0
  0
ARC
  5
33C
330
521
100
AcDbEntity
  8
C4
100
AcDbCircle
 10
129.5378195201549
 20
636.9255004741003
 30
0.0
 40
5.0
100
AcDbArc
 50
88.57180212933581
 51
167.1809983538802
  0
LINE
  5
33D
330
521
100
AcDbEntity
  8
C4
100
AcDbLine
 10
132.6624403898978
 20
628.9130168685312
 30
0.0
 11
132.6624403898978
 21
644.9130168685313
 31
0.0
  0
LINE
  5
33E
330
521
100
AcDbEntity
  8
C4
100
AcDbLine
 10
134.1624403898978
 20
637.9130168685312
 30
0.0
 11
136.1624403898978
 21
637.9130168685312
 31
0.0
  0
LINE
  5
33F
330
521
100
AcDbEntity
  8
C4
100
AcDbLine
 10
129.6624403898977
 20
638.0348599001896
 30
0.0
 11
132.6624403898978
 21
638.0348599001896
 31
0.0
  0
LINE
  5
340
330
521
100
AcDbEntity
  8
C4
100
AcDbLine
 10
129.6624403898977
 20
636.97419972841
 30
0.0
 11
132.6624403898978
 21
636.97419972841
 31
0.0
  0
LINE
  5
341
330
521
100
AcDbEntity
  8
C4
100
AcDbLine
 10
134.1624403898978
 20
642.9130168685312
 30
0.0
 11
132.6624403898978
 21
642.9130168685312
 31
0.0
  0
ARC
  5
342
330
521
100
AcDbEntity
  8
C4
100
AcDbCircle
 10
133.0374403898978
 20
642.4130168685312
 30
0.0
 40
0.5
100
AcDbArc
 50
7.848100986574213
 51
90.0
  0
LINE
  5
343
330
521
100
AcDbEntity
  8
C4
100
AcDbLine
 10
166.162440389898
 20
669.9130168685313
 30
0.0
 11
168.162440389898
 21
669.9130168685313
 31
0.0
  0
LINE
  5
344
330
521
100
AcDbEntity
  8
C4
100
AcDbLine
 10
233.6667477354998
 20
655.5533631834537
 30
0.0
 11
220.7434279277582
 21
642.6300433757123
 31
0.0
  0
LINE
  5
345
330
521
100
AcDbEntity
  8
C4
100
AcDbLine
 10
227.302786704821
 20
661.9173242141328
 30
0.0
 11
214.3794668970794
 21
648.9940044063915
 31
0.0
  0
LINE
  5
346
330
521
100
AcDbEntity
  8
C4
100
AcDbLine
 10
201.297991445128
 20
629.5485679237616
 30
0.0
 11
204.4799719604675
 21
626.3665874084221
 31
0.0
  0
LINE
  5
347
330
521
100
AcDbEntity
  8
C4
100
AcDbLine
 10
204.4799719604675
 20
626.3665874084221
 30
0.0
 11
190.6815364515167
 21
612.5681518994715
 31
0.0
  0
ARC
  5
348
330
521
100
AcDbEntity
  8
C4
100
AcDbCircle
 10
197.1624403898977
 20
625.4130168685312
 30
0.0
 40
12.5
100
AcDbArc
 50
45.0
 51
90.0
  0
LINE
  5
349
330
521
100
AcDbEntity
  8
C4
100
AcDbLine
 10
198.1160109297887
 20
632.7305484391009
 30
0.0
 11
184.317575420838
 21
618.9321129301505
 31
0.0
  0
LWPOLYLINE
  5
34A
330
521
100
AcDbEntity
  8
C4
100
AcDbPolyline
 90
        5
 70
     0
 43
0.0
 10
190.6815364515166
 20
612.5681518994715
 42
-0.0609736195238286
 10
188.2968068941725
 20
610.7035502704929
 42
-0.0743431597850519
 10
185.999555936177
 20
609.7501324148112
 42
-0.1069431103829685
 10
183.6657407602928
 20
609.6756531072743
 42
-0.152215530217387
 10
182.196255077278
 20
610.4468315559119
 42
-0.1522155302173993
  0
LWPOLYLINE
  5
34B
330
521
100
AcDbEntity
  8
C4
100
AcDbPolyline
 90
        5
 70
     0
 43
0.0
 10
184.317575420838
 20
618.9321129301504
 42
0.0609736195238286
 10
182.4529737918592
 20
616.547383372806
 42
0.0743431597850519
 10
181.4995559361774
 20
614.250132414811
 42
0.1069431103829685
 10
181.4250766286406
 20
611.9163172389264
 42
0.152215530217387
 10
182.1962550772782
 20
610.4468315559119
 42
0.1522155302173993
  0
LWPOLYLINE
  5
34C
330
521
100
AcDbEntity
  8
C4
100
AcDbPolyline
 90
        2
 70
     0
 43
0.0
 10
179.2948974419149
 20
607.5454739205484
 42
0.1989123673796523
 10
177.6624403898977
 20
608.2216597714857
 42
0.1989123673796523
  0
LWPOLYLINE
  5
34D
330
521
100
AcDbEntity
  8
C4
100
AcDbPolyline
 90
        2
 70
     0
 43
0.0
 10
179.0766539522708
 20
607.3272304309043
 42
0.1989123673796571
 10
177.6624403898977
 20
607.9130168685312
  0
LWPOLYLINE
  5
34E
330
521
100
AcDbEntity
  8
C4
100
AcDbPolyline
 90
        2
 70
     0
 43
0.0
 10
184.3799520158371
 20
609.5924249691435
 42
-0.1259349081790313
 10
185.3216183102413
 20
605.9130168685314
  0
LWPOLYLINE
  5
34F
330
521
100
AcDbEntity
  8
C4
100
AcDbPolyline
 90
        2
 70
     0
 43
0.0
 10
179.0766539522705
 20
607.3272304309048
 42
-0.1989123673796571
 10
179.6624403898974
 20
605.9130168685316
  0
LWPOLYLINE
  5
350
330
521
100
AcDbEntity
  8
C4
100
AcDbPolyline
 90
        2
 70
     0
 43
0.0
 10
179.2948974419148
 20
607.5454739205488
 42
-0.1989123673796523
 10
179.9710832928518
 20
605.9130168685316
 42
-0.1989123673796523
  0
LWPOLYLINE
  5
351
330
521
100
AcDbEntity
  8
C4
100
AcDbPolyline
 90
        2
 70
     0
 43
0.0
 10
181.3418484905096
 20
612.6305284944709
 42
0.1259349081790313
 10
177.6624403898977
 20
613.5721947888753
  0
LINE
  5
352
330
521
100
AcDbEntity
  8
C4
100
AcDbLine
 10
201.2979914451281
 20
629.5485679237615
 30
0.0
 11
198.1160109297887
 21
632.7305484391009
 31
0.0
  0
LINE
  5
353
330
521
100
AcDbEntity
  8
C4
100
AcDbLine
 10
217.5614474124189
 20
645.812023891052
 30
0.0
 11
220.7434279277582
 21
642.6300433757123
 31
0.0
  0
ARC
  5
354
330
521
100
AcDbEntity
  8
C4
100
AcDbCircle
 10
197.1624403898977
 20
625.4130168685312
 30
0.0
 40
12.5
100
AcDbArc
 50
0.0
 51
45.0
  0
LINE
  5
355
330
521
100
AcDbEntity
  8
C4
100
AcDbLine
 10
217.5614474124189
 20
645.812023891052
 30
0.0
 11
214.3794668970794
 21
648.9940044063915
 31
0.0
  0
LWPOLYLINE
  5
356
330
521
100
AcDbEntity
  8
C4
100
AcDbPolyline
 90
        5
 70
     0
 43
0.0
 10
235.7880680790596
 20
664.0386445576925
 42
0.1522155302173961
 10
234.318582396045
 20
664.8098230063303
 42
0.1069431103829815
 10
231.9847672201606
 20
664.7353436987932
 42
0.0743431597850545
 10
229.6875162621652
 20
663.7819258431115
 42
0.06097361952383
 10
227.302786704821
 20
661.9173242141328
 42
0.060973619523824
  0
LINE
  5
357
330
521
100
AcDbEntity
  8
C4
100
AcDbLine
 10
241.1624403898972
 20
596.4130168685307
 30
0.0
 11
241.162440389898
 21
659.4130168685307
 31
0.0
  0
LINE
  5
358
330
521
100
AcDbEntity
  8
1外形線
100
AcDbLine
 10
240.6825989016446
 20
596.4130168685307
 30
0.0
 11
240.6825989016458
 21
659.4130168685307
 31
0.0
  0
LINE
  5
359
330
521
100
AcDbEntity
  8
1外形線
100
AcDbLine
 10
252.0872089477219
 20
423.9130168685312
 30
0.0
 11
252.087208947722
 21
493.9130168685312
 31
0.0
  0
LINE
  5
35A
330
521
100
AcDbEntity
  8
C4
100
AcDbLine
 10
252.6376443394661
 20
423.9130168685311
 30
0.0
 11
252.6376443394658
 21
493.9130168685312
 31
0.0
  0
LINE
  5
35B
330
521
100
AcDbEntity
  8
1外形線
100
AcDbLine
 10
244.8314736948167
 20
423.9130168685313
 30
0.0
 11
244.8314736948167
 21
490.042632891923
 31
0.0
  0
LINE
  5
35C
330
521
100
AcDbEntity
  8
C4
100
AcDbLine
 10
253.137644339466
 20
421.9130168685311
 30
0.0
 11
253.137644339466
 21
423.9130168685312
 31
0.0
  0
LWPOLYLINE
  5
35D
330
521
100
AcDbEntity
  8
C4
100
AcDbPolyline
 90
        2
 70
     0
 43
0.0
 10
249.7087121513313
 20
500.9840846803967
 42
-0.1989123673796589
 10
252.6376443394658
 20
493.9130168685312
  0
LWPOLYLINE
  5
35E
330
521
100
AcDbEntity
  8
C4
100
AcDbPolyline
 90
        2
 70
     0
 43
0.0
 10
249.3194955532242
 20
500.5948680822895
 42
-0.1989123673796584
 10
252.087208947722
 20
493.9130168685312
 42
-0.1989123673796584
  0
LWPOLYLINE
  5
35F
330
521
100
AcDbEntity
  8
C4
100
AcDbPolyline
 90
        5
 70
     0
 43
0.0
 10
245.4846342888419
 20
496.7600068179072
 42
-0.1522155302173961
 10
246.2558127374794
 20
495.2905211348925
 42
-0.1069431103829815
 10
246.1813334299427
 20
492.956705959008
 42
-0.0743431597850545
 10
245.2279155742608
 20
490.6594550010126
 42
-0.06097361952383
 10
243.3633139452821
 20
488.2747254436687
 42
-0.060973619523824
  0
LWPOLYLINE
  5
360
330
521
100
AcDbEntity
  8
C4
100
AcDbPolyline
 90
        5
 70
     0
 43
0.0
 10
245.4846342888421
 20
496.760006817907
 42
0.1522155302173961
 10
244.0151486058274
 20
497.5311852665446
 42
0.1069431103829815
 10
241.681333429943
 20
497.4567059590078
 42
0.0743431597850545
 10
239.3840824719476
 20
496.5032881033258
 42
0.06097361952383
 10
236.9993529146035
 20
494.6386864743471
 42
0.060973619523824
  0
LWPOLYLINE
  5
361
330
521
100
AcDbEntity
  8
C4
100
AcDbPolyline
 90
        2
 70
     0
 43
0.0
 10
249.3194955532244
 20
500.5948680822893
 42
0.1989123673796584
 10
242.6376443394662
 20
503.3625814767871
 42
0.1989123673796584
  0
LWPOLYLINE
  5
362
330
521
100
AcDbEntity
  8
C4
100
AcDbPolyline
 90
        2
 70
     0
 43
0.0
 10
249.7087121513316
 20
500.9840846803963
 42
0.1989123673796589
 10
242.6376443394662
 20
503.913016868531
  0
LINE
  5
363
330
521
100
AcDbEntity
  8
C4
100
AcDbLine
 10
241.6624403898972
 20
594.4130168685304
 30
0.0
 11
241.6624403898972
 21
596.4130168685307
 31
0.0
  0
LWPOLYLINE
  5
364
330
521
100
AcDbEntity
  8
C4
100
AcDbPolyline
 90
        2
 70
     0
 43
0.0
 10
238.2335082017636
 20
666.4840846803961
 42
-0.1989123673796589
 10
241.162440389898
 20
659.4130168685307
  0
LWPOLYLINE
  5
365
330
521
100
AcDbEntity
  8
C4
100
AcDbPolyline
 90
        2
 70
     0
 43
0.0
 10
237.8942090315258
 20
666.1447855101584
 42
-0.1989123673796592
 10
240.6825989016458
 20
659.4130168685307
 42
-0.1989123673796592
  0
ENDSEC
  0
SECTION
  2
OBJECTS
  0
DICTIONARY
  5
4C2
330
0
100
AcDbDictionary
281
     1
  3
ACAD_COLOR
350
518
  3
ACAD_GROUP
350
4C3
  3
ACAD_LAYOUT
350
517
  3
ACAD_MATERIAL
350
4C6
  3
ACAD_MLEADERSTYLE
350
51B
  3
ACAD_MLINESTYLE
350
514
  3
ACAD_PLOTSETTINGS
350
516
  3
ACAD_PLOTSTYLENAME
350
4C4
  3
ACAD_SCALELIST
350
4F8
  3
ACAD_TABLESTYLE
350
519
  3
ACAD_VISUALSTYLE
350
4DF
  3
ACDB_RECOMPOSE_DATA
350
582
  3
AcDbVariableDictionary
350
53B
  3
DWGPROPS
350
583
  0
DICTIONARY
  5
535
330
50A
100
AcDbDictionary
280
     1
281
     1
  3
ADSK_XREC_LAYER_RECONCILED
360
536
  0
DICTIONARY
  5
537
330
526
100
AcDbDictionary
280
     1
281
     1
  3
ADSK_XREC_LAYER_RECONCILED
360
538
  0
DICTIONARY
  5
539
330
527
100
AcDbDictionary
280
     1
281
     1
  3
ADSK_XREC_LAYER_RECONCILED
360
53A
  0
DICTIONARY
  5
518
102
{ACAD_REACTORS
330
4C2
102
}
330
4C2
100
AcDbDictionary
281
     1
  0
DICTIONARY
  5
4C3
102
{ACAD_REACTORS
330
4C2
102
}
330
4C2
100
AcDbDictionary
281
     1
  0
DICTIONARY
  5
517
102
{ACAD_REACTORS
330
4C2
102
}
330
4C2
100
AcDbDictionary
281
     1
  3
Model
350
524
  3
レイアウト1
350
520
  0
DICTIONARY
  5
4C6
102
{ACAD_REACTORS
330
4C2
102
}
330
4C2
100
AcDbDictionary
281
     1
  3
ByBlock
350
4CF
  3
ByLayer
350
4C7
  3
Global
350
4D7
  0
DICTIONARY
  5
51B
102
{ACAD_REACTORS
330
4C2
102
}
330
4C2
100
AcDbDictionary
281
     1
  3
Standard
350
51C
  0
DICTIONARY
  5
514
102
{ACAD_REACTORS
330
4C2
102
}
330
4C2
100
AcDbDictionary
281
     1
  3
Standard
350
515
  0
DICTIONARY
  5
516
102
{ACAD_REACTORS
330
4C2
102
}
330
4C2
100
AcDbDictionary
281
     1
  0
ACDBDICTIONARYWDFLT
  5
4C4
102
{ACAD_REACTORS
330
4C2
102
}
330
4C2
100
AcDbDictionary
281
     1
  3
Normal
350
4C5
100
AcDbDictionaryWithDefault
340
4C5
  0
DICTIONARY
  5
4F8
102
{ACAD_REACTORS
330
4C2
102
}
330
4C2
100
AcDbDictionary
281
     1
  3
A0
350
4F9
  3
A1
350
4FA
  3
A2
350
4FB
  3
A3
350
4FC
  3
A4
350
4FD
  3
A5
350
4FE
  3
A6
350
4FF
  3
A7
350
500
  3
A8
350
501
  3
A9
350
502
  3
B0
350
503
  3
B1
350
504
  3
B2
350
505
  3
B3
350
506
  3
B4
350
507
  3
B5
350
508
  3
B6
350
509
  0
DICTIONARY
  5
519
102
{ACAD_REACTORS
330
4C2
102
}
330
4C2
100
AcDbDictionary
281
     1
  3
Standard
350
51A
  0
DICTIONARY
  5
4DF
102
{ACAD_REACTORS
330
4C2
102
}
330
4C2
100
AcDbDictionary
281
     1
  3
2dWireframe
350
4E5
  3
Basic
350
4E4
  3
Brighten
350
4EB
  3
ColorChange
350
4EF
  3
Conceptual
350
4E8
  3
Dim
350
4EA
  3
EdgeColorOff
350
4F7
  3
Facepattern
350
4EE
  3
Flat
350
4E0
  3
FlatWithEdges
350
4E1
  3
Gouraud
350
4E2
  3
GouraudWithEdges
350
4E3
  3
Hidden
350
4E7
  3
JitterOff
350
4F5
  3
Linepattern
350
4ED
  3
OverhangOff
350
4F6
  3
Realistic
350
4E9
  3
Shaded
350
4F4
  3
Shaded with edges
350
4F3
  3
Shades of Gray
350
4F0
  3
Sketchy
350
4F1
  3
Thicken
350
4EC
  3
Wireframe
350
4E6
  3
X-Ray
350
4F2
  0
XRECORD
  5
582
102
{ACAD_REACTORS
330
4C2
102
}
330
4C2
100
AcDbXrecord
280
     1
 90
        1
330
51A
  0
DICTIONARY
  5
53B
102
{ACAD_REACTORS
330
4C2
102
}
330
4C2
100
AcDbDictionary
281
     1
  3
CANNOSCALE
350
53E
  3
CMLEADERSTYLE
350
53D
  3
CTABLESTYLE
350
53C
  3
DIMASSOC
350
541
  3
INDEXCTL
350
540
  3
SORTENTS
350
53F
  3
XCLIPFRAME
350
542
  0
XRECORD
  5
583
102
{ACAD_REACTORS
330
4C2
102
}
330
4C2
100
AcDbXrecord
280
     1
  1
DWGPROPS COOKIE
  2

  3

  4

  6

  7

  8
ryuji.ikebe
  9

300
=
301
=
302
=
303
=
304
=
305
=
306
=
307
=
308
=
309
=
 40
0.0006046064814815
 41
2452216.48613684
 42
2457284.479871539
  1

 90
        0
  0
XRECORD
  5
536
102
{ACAD_REACTORS
330
535
102
}
330
535
100
AcDbXrecord
280
     1
290
     1
  0
XRECORD
  5
538
102
{ACAD_REACTORS
330
537
102
}
330
537
100
AcDbXrecord
280
     1
290
     1
  0
XRECORD
  5
53A
102
{ACAD_REACTORS
330
539
102
}
330
539
100
AcDbXrecord
280
     1
290
     1
  0
LAYOUT
  5
524
102
{ACAD_XDICTIONARY
360
5BB
102
}
102
{ACAD_REACTORS
330
517
102
}
330
517
100
AcDbPlotSettings
  1

  2
SHARP MX-M350N SPDL2_T1
  4

  6

 40
0.0
 41
0.0
 42
0.0
 43
0.0
 44
0.0
 45
0.0
 46
0.0
 47
0.0
 48
0.0
 49
0.0
140
0.0
141
0.0
142
1.0
143
1.0
 70
  1712
 72
     0
 73
     0
 74
     0
  7
mono.ctb
 75
     0
147
1.0
148
0.0
149
0.0
100
AcDbLayout
  1
Model
 70
     1
 71
     0
 10
0.0
 20
0.0
 11
12.0
 21
9.0
 12
0.0
 22
0.0
 32
0.0
 14
0.0
 24
0.0
 34
0.0
 15
0.0
 25
0.0
 35
0.0
146
0.0
 13
0.0
 23
0.0
 33
0.0
 16
1.0
 26
0.0
 36
0.0
 17
0.0
 27
1.0
 37
0.0
 76
     0
330
521
331
525
  0
LAYOUT
  5
520
102
{ACAD_XDICTIONARY
360
5B9
102
}
102
{ACAD_REACTORS
330
517
102
}
330
517
100
AcDbPlotSettings
  1

  2
SHARP MX-M350N SPDL2_T1
  4

  6

 40
0.0
 41
0.0
 42
0.0
 43
0.0
 44
0.0
 45
0.0
 46
0.0
 47
0.0
 48
0.0
 49
0.0
140
0.0
141
0.0
142
1.0
143
1.0
 70
   688
 72
     0
 73
     0
 74
     5
  7
mono.ctb
 75
    16
147
1.0
148
0.0
149
0.0
100
AcDbLayout
  1
レイアウト1
 70
     1
 71
     1
 10
0.0
 20
0.0
 11
420.0
 21
297.0
 12
0.0
 22
0.0
 32
0.0
 14
1.000000000000000E+20
 24
1.000000000000000E+20
 34
1.000000000000000E+20
 15
-1.000000000000000E+20
 25
-1.000000000000000E+20
 35
-1.000000000000000E+20
146
0.0
 13
0.0
 23
0.0
 33
0.0
 16
1.0
 26
0.0
 36
0.0
 17
0.0
 27
1.0
 37
0.0
 76
     0
330
51D
  0
MATERIAL
  5
4CF
102
{ACAD_XDICTIONARY
360
4D0
102
}
102
{ACAD_REACTORS
330
4C6
102
}
330
4C6
100
AcDbMaterial
  1
ByBlock
 72
     0
 43
0.0208333333333333
 43
0.0
 43
0.0
 43
0.0
 43
0.0
 43
0.0208333333333333
 43
0.0
 43
0.0
 43
0.0
 43
0.0
 43
1.0
 43
0.0
 43
0.0
 43
0.0
 43
0.0
 43
1.0
 77
     0
 47
0.0208333333333333
 47
0.0
 47
0.0
 47
0.0
 47
0.0
 47
0.0208333333333333
 47
0.0
 47
0.0
 47
0.0
 47
0.0
 47
1.0
 47
0.0
 47
0.0
 47
0.0
 47
0.0
 47
1.0
171
     0
 49
0.0208333333333333
 49
0.0
 49
0.0
 49
0.0
 49
0.0
 49
0.0208333333333333
 49
0.0
 49
0.0
 49
0.0
 49
0.0
 49
1.0
 49
0.0
 49
0.0
 49
0.0
 49
0.0
 49
1.0
175
     0
142
0.0208333333333333
142
0.0
142
0.0
142
0.0
142
0.0
142
0.0208333333333333
142
0.0
142
0.0
142
0.0
142
0.0
142
1.0
142
0.0
142
0.0
142
0.0
142
0.0
142
1.0
179
     0
144
0.0208333333333333
144
0.0
144
0.0
144
0.0
144
0.0
144
0.0208333333333333
144
0.0
144
0.0
144
0.0
144
0.0
144
1.0
144
0.0
144
0.0
144
0.0
144
0.0
144
1.0
147
0.0208333333333333
147
0.0
147
0.0
147
0.0
147
0.0
147
0.0208333333333333
147
0.0
147
0.0
147
0.0
147
0.0
147
1.0
147
0.0
147
0.0
147
0.0
147
0.0
147
1.0
  0
MATERIAL
  5
4C7
102
{ACAD_XDICTIONARY
360
4C8
102
}
102
{ACAD_REACTORS
330
4C6
102
}
330
4C6
100
AcDbMaterial
  1
ByLayer
 72
     0
 43
0.0208333333333333
 43
0.0
 43
0.0
 43
0.0
 43
0.0
 43
0.0208333333333333
 43
0.0
 43
0.0
 43
0.0
 43
0.0
 43
1.0
 43
0.0
 43
0.0
 43
0.0
 43
0.0
 43
1.0
 77
     0
 47
0.0208333333333333
 47
0.0
 47
0.0
 47
0.0
 47
0.0
 47
0.0208333333333333
 47
0.0
 47
0.0
 47
0.0
 47
0.0
 47
1.0
 47
0.0
 47
0.0
 47
0.0
 47
0.0
 47
1.0
171
     0
 49
0.0208333333333333
 49
0.0
 49
0.0
 49
0.0
 49
0.0
 49
0.0208333333333333
 49
0.0
 49
0.0
 49
0.0
 49
0.0
 49
1.0
 49
0.0
 49
0.0
 49
0.0
 49
0.0
 49
1.0
175
     0
142
0.0208333333333333
142
0.0
142
0.0
142
0.0
142
0.0
142
0.0208333333333333
142
0.0
142
0.0
142
0.0
142
0.0
142
1.0
142
0.0
142
0.0
142
0.0
142
0.0
142
1.0
179
     0
144
0.0208333333333333
144
0.0
144
0.0
144
0.0
144
0.0
144
0.0208333333333333
144
0.0
144
0.0
144
0.0
144
0.0
144
1.0
144
0.0
144
0.0
144
0.0
144
0.0
144
1.0
147
0.0208333333333333
147
0.0
147
0.0
147
0.0
147
0.0
147
0.0208333333333333
147
0.0
147
0.0
147
0.0
147
0.0
147
1.0
147
0.0
147
0.0
147
0.0
147
0.0
147
1.0
  0
MATERIAL
  5
4D7
102
{ACAD_XDICTIONARY
360
4D8
102
}
102
{ACAD_REACTORS
330
4C6
102
}
330
4C6
100
AcDbMaterial
  1
Global
 72
     0
 43
0.0208333333333333
 43
0.0
 43
0.0
 43
0.0
 43
0.0
 43
0.0208333333333333
 43
0.0
 43
0.0
 43
0.0
 43
0.0
 43
1.0
 43
0.0
 43
0.0
 43
0.0
 43
0.0
 43
1.0
 77
     0
 47
0.0208333333333333
 47
0.0
 47
0.0
 47
0.0
 47
0.0
 47
0.0208333333333333
 47
0.0
 47
0.0
 47
0.0
 47
0.0
 47
1.0
 47
0.0
 47
0.0
 47
0.0
 47
0.0
 47
1.0
171
     0
 49
0.0208333333333333
 49
0.0
 49
0.0
 49
0.0
 49
0.0
 49
0.0208333333333333
 49
0.0
 49
0.0
 49
0.0
 49
0.0
 49
1.0
 49
0.0
 49
0.0
 49
0.0
 49
0.0
 49
1.0
175
     0
142
0.0208333333333333
142
0.0
142
0.0
142
0.0
142
0.0
142
0.0208333333333333
142
0.0
142
0.0
142
0.0
142
0.0
142
1.0
142
0.0
142
0.0
142
0.0
142
0.0
142
1.0
179
     0
144
0.0208333333333333
144
0.0
144
0.0
144
0.0
144
0.0
144
0.0208333333333333
144
0.0
144
0.0
144
0.0
144
0.0
144
1.0
144
0.0
144
0.0
144
0.0
144
0.0
144
1.0
147
0.0208333333333333
147
0.0
147
0.0
147
0.0
147
0.0
147
0.0208333333333333
147
0.0
147
0.0
147
0.0
147
0.0
147
1.0
147
0.0
147
0.0
147
0.0
147
0.0
147
1.0
  0
MLEADERSTYLE
  5
51C
102
{ACAD_REACTORS
330
51B
102
}
330
51B
100
AcDbMLeaderStyle
170
     2
171
     1
172
     0
 90
        2
 40
0.0
 41
0.0
173
     1
 91
-1056964608
340
510
 92
       -2
290
     1
 42
0.09
291
     1
 43
0.36
  3
Standard
 44
0.18
300

342
50B
174
     1
178
     6
175
     1
176
     0
 93
-1056964608
 45
0.18
292
     0
297
     0
 46
0.18
 94
-1056964608
 47
1.0
 49
1.0
140
1.0
293
     1
141
0.0
294
     1
177
     0
142
1.0
295
     0
296
     0
143
0.125
1001
ACAD_MLEADERVER
1070
     2
  0
MLINESTYLE
  5
515
102
{ACAD_REACTORS
330
514
102
}
330
514
100
AcDbMlineStyle
  2
STANDARD
 70
     0
  3

 62
   256
 51
90.0
 52
90.0
 71
     2
 49
0.5
 62
   256
  6
BYLAYER
 49
-0.5
 62
   256
  6
BYLAYER
  0
ACDBPLACEHOLDER
  5
4C5
102
{ACAD_REACTORS
330
4C4
102
}
330
4C4
  0
SCALE
  5
4F9
102
{ACAD_REACTORS
330
4F8
102
}
330
4F8
100
AcDbScale
 70
     0
300
1:1
140
1.0
141
1.0
290
     1
  0
SCALE
  5
4FA
102
{ACAD_REACTORS
330
4F8
102
}
330
4F8
100
AcDbScale
 70
     0
300
1/128" = 1'-0"
140
0.0078125
141
12.0
290
     0
  0
SCALE
  5
4FB
102
{ACAD_REACTORS
330
4F8
102
}
330
4F8
100
AcDbScale
 70
     0
300
1/64" = 1'-0"
140
0.015625
141
12.0
290
     0
  0
SCALE
  5
4FC
102
{ACAD_REACTORS
330
4F8
102
}
330
4F8
100
AcDbScale
 70
     0
300
1/32" = 1'-0"
140
0.03125
141
12.0
290
     0
  0
SCALE
  5
4FD
102
{ACAD_REACTORS
330
4F8
102
}
330
4F8
100
AcDbScale
 70
     0
300
1/16" = 1'-0"
140
0.0625
141
12.0
290
     0
  0
SCALE
  5
4FE
102
{ACAD_REACTORS
330
4F8
102
}
330
4F8
100
AcDbScale
 70
     0
300
3/32" = 1'-0"
140
0.09375
141
12.0
290
     0
  0
SCALE
  5
4FF
102
{ACAD_REACTORS
330
4F8
102
}
330
4F8
100
AcDbScale
 70
     0
300
1/8" = 1'-0"
140
0.125
141
12.0
290
     0
  0
SCALE
  5
500
102
{ACAD_REACTORS
330
4F8
102
}
330
4F8
100
AcDbScale
 70
     0
300
3/16" = 1'-0"
140
0.1875
141
12.0
290
     0
  0
SCALE
  5
501
102
{ACAD_REACTORS
330
4F8
102
}
330
4F8
100
AcDbScale
 70
     0
300
1/4" = 1'-0"
140
0.25
141
12.0
290
     0
  0
SCALE
  5
502
102
{ACAD_REACTORS
330
4F8
102
}
330
4F8
100
AcDbScale
 70
     0
300
3/8" = 1'-0"
140
0.375
141
12.0
290
     0
  0
SCALE
  5
503
102
{ACAD_REACTORS
330
4F8
102
}
330
4F8
100
AcDbScale
 70
     0
300
1/2" = 1'-0"
140
0.5
141
12.0
290
     0
  0
SCALE
  5
504
102
{ACAD_REACTORS
330
4F8
102
}
330
4F8
100
AcDbScale
 70
     0
300
3/4" = 1'-0"
140
0.75
141
12.0
290
     0
  0
SCALE
  5
505
102
{ACAD_REACTORS
330
4F8
102
}
330
4F8
100
AcDbScale
 70
     0
300
1" = 1'-0"
140
1.0
141
12.0
290
     0
  0
SCALE
  5
506
102
{ACAD_REACTORS
330
4F8
102
}
330
4F8
100
AcDbScale
 70
     0
300
1-1/2" = 1'-0"
140
1.5
141
12.0
290
     0
  0
SCALE
  5
507
102
{ACAD_REACTORS
330
4F8
102
}
330
4F8
100
AcDbScale
 70
     0
300
3" = 1'-0"
140
3.0
141
12.0
290
     0
  0
SCALE
  5
508
102
{ACAD_REACTORS
330
4F8
102
}
330
4F8
100
AcDbScale
 70
     0
300
6" = 1'-0"
140
6.0
141
12.0
290
     0
  0
SCALE
  5
509
102
{ACAD_REACTORS
330
4F8
102
}
330
4F8
100
AcDbScale
 70
     0
300
1'-0" = 1'-0"
140
12.0
141
12.0
290
     0
  0
TABLESTYLE
  5
51A
102
{ACAD_XDICTIONARY
360
580
102
}
102
{ACAD_REACTORS
330
519
102
}
330
519
100
AcDbTableStyle
  3
Standard
 70
     0
 71
     0
 40
0.06
 41
0.06
280
     0
281
     0
  7
STANDARD
140
0.18
170
     2
 62
     0
 63
     7
283
     0
274
    -2
284
     1
 64
     0
275
    -2
285
     1
 65
     0
276
    -2
286
     1
 66
     0
277
    -2
287
     1
 67
     0
278
    -2
288
     1
 68
     0
279
    -2
289
     1
 69
     0
  7
STANDARD
140
0.25
170
     5
 62
     0
 63
     7
283
     0
274
    -2
284
     1
 64
     0
275
    -2
285
     1
 65
     0
276
    -2
286
     1
 66
     0
277
    -2
287
     1
 67
     0
278
    -2
288
     1
 68
     0
279
    -2
289
     1
 69
     0
  7
STANDARD
140
0.18
170
     5
 62
     0
 63
     7
283
     0
274
    -2
284
     1
 64
     0
275
    -2
285
     1
 65
     0
276
    -2
286
     1
 66
     0
277
    -2
287
     1
 67
     0
278
    -2
288
     1
 68
     0
279
    -2
289
     1
 69
     0
  0
VISUALSTYLE
  5
4E5
102
{ACAD_XDICTIONARY
360
591
102
}
102
{ACAD_REACTORS
330
4DF
102
}
330
4DF
100
AcDbVisualStyle
  2
2dWireframe
 70
     4
 71
     0
 72
     2
 73
     0
 90
        0
 40
-0.6
 41
-30.0
 62
     5
 63
     7
 74
     1
 91
        4
 64
     7
 65
   257
 75
     1
175
     1
 42
1.0
 92
        0
 66
   257
 43
1.0
 76
     1
 77
     6
 78
     2
 67
     7
 79
     5
170
     0
171
     0
290
     0
174
     0
 93
        1
 44
0.0
173
     0
291
     0
 45
0.0
1001
ACAD
1000
AcDbSavedByObjectVersion
1070
     0
  0
VISUALSTYLE
  5
4E4
102
{ACAD_XDICTIONARY
360
58F
102
}
102
{ACAD_REACTORS
330
4DF
102
}
330
4DF
100
AcDbVisualStyle
  2
Basic
 70
     7
 71
     1
 72
     0
 73
     1
 90
        0
 40
-0.6
 41
-30.0
 62
     5
 63
     7
 74
     0
 91
        4
 64
     7
 65
   257
 75
     1
175
     1
 42
1.0
 92
        8
 66
     7
 43
1.0
 76
     1
 77
     6
 78
     2
 67
     7
 79
     5
170
     0
171
     0
290
     0
174
     0
 93
        1
 44
0.0
173
     0
291
     1
 45
0.0
1001
ACAD
1000
AcDbSavedByObjectVersion
1070
     0
  0
VISUALSTYLE
  5
4EB
102
{ACAD_XDICTIONARY
360
59D
102
}
102
{ACAD_REACTORS
330
4DF
102
}
330
4DF
100
AcDbVisualStyle
  2
Brighten
 70
    12
 71
     2
 72
     2
 73
     0
 90
        0
 40
-0.6
 41
-30.0
 62
     5
 63
     7
 74
     1
 91
        4
 64
     7
 65
   257
 75
     1
175
     1
 42
1.0
 92
        8
 66
     7
 43
1.0
 76
     1
 77
     6
 78
     2
 67
     7
 79
     5
170
     0
171
     0
290
     0
174
     0
 93
        1
 44
50.0
173
     0
291
     1
 45
0.0
1001
ACAD
1000
AcDbSavedByObjectVersion
1070
     0
  0
VISUALSTYLE
  5
4EF
102
{ACAD_XDICTIONARY
360
5A5
102
}
102
{ACAD_REACTORS
330
4DF
102
}
330
4DF
100
AcDbVisualStyle
  2
ColorChange
 70
    16
 71
     2
 72
     2
 73
     3
 90
        0
 40
-0.6
 41
-30.0
 62
     5
 63
     8
 74
     1
 91
        4
 64
     7
 65
   257
 75
     1
175
     1
 42
1.0
 92
        8
 66
     8
 43
1.0
 76
     1
 77
     6
 78
     2
 67
     7
 79
     5
170
     0
171
     0
290
     0
174
     0
 93
        1
 44
0.0
173
     0
291
     1
 45
0.0
1001
ACAD
1000
AcDbSavedByObjectVersion
1070
     0
  0
VISUALSTYLE
  5
4E8
102
{ACAD_XDICTIONARY
360
597
102
}
102
{ACAD_REACTORS
330
4DF
102
}
330
4DF
100
AcDbVisualStyle
  2
Conceptual
 70
     9
 71
     3
 72
     2
 73
     0
 90
        0
 40
-0.6
 41
-30.0
 62
     5
 63
     7
 74
     2
 91
        2
 64
     7
 65
   257
 75
     1
175
     1
 42
179.0
 92
        8
 66
     7
 43
1.0
 76
     1
 77
     6
 78
     2
 67
     7
 79
     3
170
     0
171
     0
290
     0
174
     0
 93
        1
 44
0.0
173
     0
291
     0
 45
0.0
1001
ACAD
1000
AcDbSavedByObjectVersion
1070
     0
  0
VISUALSTYLE
  5
4EA
102
{ACAD_XDICTIONARY
360
59B
102
}
102
{ACAD_REACTORS
330
4DF
102
}
330
4DF
100
AcDbVisualStyle
  2
Dim
 70
    11
 71
     2
 72
     2
 73
     0
 90
        0
 40
-0.6
 41
-30.0
 62
     5
 63
     7
 74
     1
 91
        4
 64
     7
 65
   257
 75
     1
175
     1
 42
1.0
 92
        8
 66
     7
 43
1.0
 76
     1
 77
     6
 78
     2
 67
     7
 79
     5
170
     0
171
     0
290
     0
174
     0
 93
        1
 44
-50.0
173
     0
291
     1
 45
0.0
1001
ACAD
1000
AcDbSavedByObjectVersion
1070
     0
  0
VISUALSTYLE
  5
4F7
102
{ACAD_XDICTIONARY
360
5B5
102
}
102
{ACAD_REACTORS
330
4DF
102
}
330
4DF
100
AcDbVisualStyle
  2
EdgeColorOff
 70
    22
 71
     2
 72
     2
 73
     0
 90
        0
 40
-0.6
 41
-30.0
 62
     5
 63
     7
 74
     1
 91
        4
 64
     7
 65
   257
 75
     1
175
     1
 42
1.0
 92
        8
 66
     7
 43
1.0
 76
     1
 77
     6
 78
     2
 67
     7
 79
     5
170
     0
171
     0
290
     0
174
     0
 93
        1
 44
0.0
173
     0
291
     1
 45
0.0
1001
ACAD
1000
AcDbSavedByObjectVersion
1070
     0
  0
VISUALSTYLE
  5
4EE
102
{ACAD_XDICTIONARY
360
5A3
102
}
102
{ACAD_REACTORS
330
4DF
102
}
330
4DF
100
AcDbVisualStyle
  2
Facepattern
 70
    15
 71
     2
 72
     2
 73
     0
 90
        0
 40
-0.6
 41
-30.0
 62
     5
 63
     7
 74
     1
 91
        4
 64
     7
 65
   257
 75
     1
175
     1
 42
1.0
 92
        8
 66
     7
 43
1.0
 76
     1
 77
     6
 78
     2
 67
     7
 79
     5
170
     0
171
     0
290
     0
174
     0
 93
        1
 44
0.0
173
     0
291
     1
 45
0.0
1001
ACAD
1000
AcDbSavedByObjectVersion
1070
     0
  0
VISUALSTYLE
  5
4E0
102
{ACAD_XDICTIONARY
360
587
102
}
102
{ACAD_REACTORS
330
4DF
102
}
330
4DF
100
AcDbVisualStyle
  2
Flat
 70
     0
 71
     2
 72
     1
 73
     1
 90
        2
 40
-0.6
 41
30.0
 62
     5
 63
     7
 74
     0
 91
        0
 64
     7
 65
   257
 75
     1
175
     1
 42
1.0
 92
        8
 66
     7
 43
1.0
 76
     1
 77
     6
 78
     2
 67
     7
 79
     5
170
     0
171
     0
290
     0
174
     0
 93
       13
 44
0.0
173
     0
291
     1
 45
0.0
1001
ACAD
1000
AcDbSavedByObjectVersion
1070
     0
  0
VISUALSTYLE
  5
4E1
102
{ACAD_XDICTIONARY
360
589
102
}
102
{ACAD_REACTORS
330
4DF
102
}
330
4DF
100
AcDbVisualStyle
  2
FlatWithEdges
 70
     1
 71
     2
 72
     1
 73
     1
 90
        2
 40
-0.6
 41
30.0
 62
     5
 63
     7
 74
     1
 91
        0
 64
     7
 65
   257
 75
     1
175
     1
 42
1.0
 92
        0
 66
   257
 43
1.0
 76
     1
 77
     6
 78
     2
 67
     7
 79
     5
170
     0
171
     0
290
     0
174
     0
 93
       13
 44
0.0
173
     0
291
     1
 45
0.0
1001
ACAD
1000
AcDbSavedByObjectVersion
1070
     0
  0
VISUALSTYLE
  5
4E2
102
{ACAD_XDICTIONARY
360
58B
102
}
102
{ACAD_REACTORS
330
4DF
102
}
330
4DF
100
AcDbVisualStyle
  2
Gouraud
 70
     2
 71
     2
 72
     2
 73
     1
 90
        2
 40
-0.6
 41
30.0
 62
     5
 63
     7
 74
     0
 91
        0
 64
     7
 65
   257
 75
     1
175
     1
 42
1.0
 92
        0
 66
     7
 43
1.0
 76
     1
 77
     6
 78
     2
 67
     7
 79
     5
170
     0
171
     0
290
     0
174
     0
 93
       13
 44
0.0
173
     0
291
     1
 45
0.0
1001
ACAD
1000
AcDbSavedByObjectVersion
1070
     0
  0
VISUALSTYLE
  5
4E3
102
{ACAD_XDICTIONARY
360
58D
102
}
102
{ACAD_REACTORS
330
4DF
102
}
330
4DF
100
AcDbVisualStyle
  2
GouraudWithEdges
 70
     3
 71
     2
 72
     2
 73
     1
 90
        2
 40
-0.6
 41
30.0
 62
     5
 63
     7
 74
     1
 91
        0
 64
     7
 65
   257
 75
     1
175
     1
 42
1.0
 92
        0
 66
   257
 43
1.0
 76
     1
 77
     6
 78
     2
 67
     7
 79
     5
170
     0
171
     0
290
     0
174
     0
 93
       13
 44
0.0
173
     0
291
     1
 45
0.0
1001
ACAD
1000
AcDbSavedByObjectVersion
1070
     0
  0
VISUALSTYLE
  5
4E7
102
{ACAD_XDICTIONARY
360
595
102
}
102
{ACAD_REACTORS
330
4DF
102
}
330
4DF
100
AcDbVisualStyle
  2
Hidden
 70
     6
 71
     1
 72
     2
 73
     2
 90
        0
 40
-0.6
 41
-30.0
 62
     5
 63
     7
 74
     2
 91
        2
 64
     7
 65
   257
 75
     2
175
     1
 42
40.0
 92
        0
 66
   257
 43
1.0
 76
     1
 77
     6
 78
     2
 67
     7
 79
     3
170
     0
171
     0
290
     0
174
     0
 93
        1
 44
0.0
173
     0
291
     0
 45
0.0
1001
ACAD
1000
AcDbSavedByObjectVersion
1070
     0
  0
VISUALSTYLE
  5
4F5
102
{ACAD_XDICTIONARY
360
5B1
102
}
102
{ACAD_REACTORS
330
4DF
102
}
330
4DF
100
AcDbVisualStyle
  2
JitterOff
 70
    20
 71
     2
 72
     2
 73
     0
 90
        0
 40
-0.6
 41
-30.0
 62
     5
 63
     7
 74
     1
 91
        4
 64
     7
 65
   257
 75
     1
175
     1
 42
1.0
 92
       10
 66
     7
 43
1.0
 76
     1
 77
     6
 78
     2
 67
     7
 79
     5
170
     0
171
     0
290
     0
174
     0
 93
        1
 44
0.0
173
     0
291
     1
 45
0.0
1001
ACAD
1000
AcDbSavedByObjectVersion
1070
     0
  0
VISUALSTYLE
  5
4ED
102
{ACAD_XDICTIONARY
360
5A1
102
}
102
{ACAD_REACTORS
330
4DF
102
}
330
4DF
100
AcDbVisualStyle
  2
Linepattern
 70
    14
 71
     2
 72
     2
 73
     0
 90
        0
 40
-0.6
 41
-30.0
 62
     5
 63
     7
 74
     1
 91
        4
 64
     7
 65
   257
 75
     7
175
     7
 42
1.0
 92
        8
 66
     7
 43
1.0
 76
     1
 77
     6
 78
     2
 67
     7
 79
     5
170
     0
171
     0
290
     0
174
     0
 93
        1
 44
0.0
173
     0
291
     1
 45
0.0
1001
ACAD
1000
AcDbSavedByObjectVersion
1070
     0
  0
VISUALSTYLE
  5
4F6
102
{ACAD_XDICTIONARY
360
5B3
102
}
102
{ACAD_REACTORS
330
4DF
102
}
330
4DF
100
AcDbVisualStyle
  2
OverhangOff
 70
    21
 71
     2
 72
     2
 73
     0
 90
        0
 40
-0.6
 41
-30.0
 62
     5
 63
     7
 74
     1
 91
        4
 64
     7
 65
   257
 75
     1
175
     1
 42
1.0
 92
        9
 66
     7
 43
1.0
 76
     1
 77
     6
 78
     2
 67
     7
 79
     5
170
     0
171
     0
290
     0
174
     0
 93
        1
 44
0.0
173
     0
291
     1
 45
0.0
1001
ACAD
1000
AcDbSavedByObjectVersion
1070
     0
  0
VISUALSTYLE
  5
4E9
102
{ACAD_XDICTIONARY
360
599
102
}
102
{ACAD_REACTORS
330
4DF
102
}
330
4DF
100
AcDbVisualStyle
  2
Realistic
 70
     8
 71
     2
 72
     3
 73
     0
 90
        2
 40
-0.6
 41
30.0
 62
     5
 63
     7
 74
     0
 91
        0
 64
     7
 65
   257
 75
     1
175
     1
 42
1.0
 92
        8
 66
   257
 43
1.0
 76
     1
 77
     6
 78
     2
 67
     7
 79
     3
170
     0
171
     0
290
     0
174
     0
 93
       13
 44
0.0
173
     0
291
     0
 45
0.0
1001
ACAD
1000
AcDbSavedByObjectVersion
1070
     0
  0
VISUALSTYLE
  5
4F4
102
{ACAD_XDICTIONARY
360
5AF
102
}
102
{ACAD_REACTORS
330
4DF
102
}
330
4DF
100
AcDbVisualStyle
  2
Shaded
 70
    27
 71
     2
 72
     2
 73
     1
 90
        2
 40
-0.6
 41
30.0
 62
     5
 63
     7
 74
     0
 91
        4
 64
     7
 65
   257
 75
     1
175
     1
 42
1.0
 92
        8
 66
   257
 43
1.0
 76
     1
 77
     6
 78
     2
 67
     8
 79
     3
170
     0
171
     0
290
     0
174
     0
 93
        5
 44
0.0
173
     0
291
     0
 45
0.0
1001
ACAD
1000
AcDbSavedByObjectVersion
1070
     0
  0
VISUALSTYLE
  5
4F3
102
{ACAD_XDICTIONARY
360
5AD
102
}
102
{ACAD_REACTORS
330
4DF
102
}
330
4DF
100
AcDbVisualStyle
  2
Shaded with edges
 70
    26
 71
     2
 72
     2
 73
     1
 90
        2
 40
-0.6
 41
30.0
 62
     5
 63
     7
 74
     1
 91
       10
 64
     7
 65
   257
 75
     2
175
     1
 42
1.0
 92
        8
 66
   257
 43
1.0
 76
     1
 77
     6
 78
     2
 67
     7
 79
     3
170
     0
171
     0
290
     0
174
     0
 93
        5
 44
0.0
173
     0
291
     0
 45
0.0
1001
ACAD
1000
AcDbSavedByObjectVersion
1070
     0
  0
VISUALSTYLE
  5
4F0
102
{ACAD_XDICTIONARY
360
5A7
102
}
102
{ACAD_REACTORS
330
4DF
102
}
330
4DF
100
AcDbVisualStyle
  2
Shades of Gray
 70
    23
 71
     2
 72
     2
 73
     3
 90
        0
 40
-0.6
 41
-30.0
 62
     5
 63
     7
 74
     2
 91
        2
 64
     7
 65
     7
 75
     1
175
     1
 42
40.0
 92
        8
 66
     7
 43
1.0
 76
     1
 77
     6
 78
     2
 67
     7
 79
     3
170
     0
171
     0
290
     0
174
     0
 93
        1
 44
0.0
173
     0
291
     0
 45
0.0
1001
ACAD
1000
AcDbSavedByObjectVersion
1070
     0
  0
VISUALSTYLE
  5
4F1
102
{ACAD_XDICTIONARY
360
5A9
102
}
102
{ACAD_REACTORS
330
4DF
102
}
330
4DF
100
AcDbVisualStyle
  2
Sketchy
 70
    24
 71
     1
 72
     2
 73
     2
 90
        0
 40
-0.6
 41
-30.0
 62
     5
 63
     7
 74
     2
 91
        2
 64
     7
 65
     7
 75
     1
175
     1
 42
40.0
 92
       11
 66
     7
 43
1.0
 76
     1
 77
     6
 78
     2
 67
     7
 79
     6
170
     0
171
     0
290
     0
174
     0
 93
        1
 44
0.0
173
     0
291
     0
 45
0.0
1001
ACAD
1000
AcDbSavedByObjectVersion
1070
     0
  0
VISUALSTYLE
  5
4EC
102
{ACAD_XDICTIONARY
360
59F
102
}
102
{ACAD_REACTORS
330
4DF
102
}
330
4DF
100
AcDbVisualStyle
  2
Thicken
 70
    13
 71
     2
 72
     2
 73
     0
 90
        0
 40
-0.6
 41
-30.0
 62
     5
 63
     7
 74
     1
 91
        4
 64
     7
 65
   257
 75
     1
175
     1
 42
1.0
 92
       12
 66
     7
 43
1.0
 76
     1
 77
     6
 78
     2
 67
     7
 79
     5
170
     0
171
     0
290
     0
174
     0
 93
        1
 44
0.0
173
     0
291
     1
 45
0.0
1001
ACAD
1000
AcDbSavedByObjectVersion
1070
     0
  0
VISUALSTYLE
  5
4E6
102
{ACAD_XDICTIONARY
360
593
102
}
102
{ACAD_REACTORS
330
4DF
102
}
330
4DF
100
AcDbVisualStyle
  2
Wireframe
 70
     5
 71
     0
 72
     2
 73
     0
 90
        0
 40
-0.6
 41
-30.0
 62
     5
 63
     7
 74
     1
 91
        4
 64
     7
 65
   257
 75
     1
175
     1
 42
1.0
 92
        0
 66
   257
 43
1.0
 76
     1
 77
     6
 78
     2
 67
     7
 79
     3
170
     0
171
     0
290
     0
174
     0
 93
        1
 44
0.0
173
     0
291
     0
 45
0.0
1001
ACAD
1000
AcDbSavedByObjectVersion
1070
     0
  0
VISUALSTYLE
  5
4F2
102
{ACAD_XDICTIONARY
360
5AB
102
}
102
{ACAD_REACTORS
330
4DF
102
}
330
4DF
100
AcDbVisualStyle
  2
X-Ray
 70
    25
 71
     2
 72
     2
 73
     1
 90
        1
 40
0.5
 41
-30.0
 62
     5
 63
     7
 74
     1
 91
        0
 64
     7
 65
   257
 75
     1
175
     1
 42
1.0
 92
        8
 66
     7
 43
1.0
 76
     1
 77
     6
 78
     2
 67
     7
 79
     3
170
     0
171
     0
290
     0
174
     0
 93
       13
 44
0.0
173
     0
291
     0
 45
0.0
1001
ACAD
1000
AcDbSavedByObjectVersion
1070
     0
  0
DICTIONARYVAR
  5
53E
102
{ACAD_REACTORS
330
53B
102
}
330
53B
100
DictionaryVariables
280
     0
  1
1:1
  0
DICTIONARYVAR
  5
53D
102
{ACAD_REACTORS
330
53B
102
}
330
53B
100
DictionaryVariables
280
     0
  1
STANDARD
  0
DICTIONARYVAR
  5
53C
102
{ACAD_REACTORS
330
53B
102
}
330
53B
100
DictionaryVariables
280
     0
  1
STANDARD
  0
DICTIONARYVAR
  5
541
102
{ACAD_REACTORS
330
53B
102
}
330
53B
100
DictionaryVariables
280
     0
  1
1
  0
DICTIONARYVAR
  5
540
102
{ACAD_REACTORS
330
53B
102
}
330
53B
100
DictionaryVariables
280
     0
  1
0
  0
DICTIONARYVAR
  5
53F
102
{ACAD_REACTORS
330
53B
102
}
330
53B
100
DictionaryVariables
280
     0
  1
127
  0
DICTIONARYVAR
  5
542
102
{ACAD_REACTORS
330
53B
102
}
330
53B
100
DictionaryVariables
280
     0
  1
2
  0
DICTIONARY
  5
5BB
330
524
100
AcDbDictionary
280
     1
281
     1
  3
ACAD_XREC_ROUNDTRIP
360
5BC
  0
DICTIONARY
  5
5B9
330
520
100
AcDbDictionary
280
     1
281
     1
  3
ACAD_XREC_ROUNDTRIP
360
5BA
  0
DICTIONARY
  5
4D0
330
4CF
100
AcDbDictionary
280
     1
281
     1
  3
ACAD_XREC_ROUNDTRIP
360
585
  3
BUMPTILE
360
4D2
  3
DIFFUSETILE
360
4D1
  3
OPACITYTILE
360
4D5
  3
REFLECTIONTILE
360
4D4
  3
REFRACTIONTILE
360
4D6
  3
SPECULARTILE
360
4D3
  0
DICTIONARY
  5
4C8
330
4C7
100
AcDbDictionary
280
     1
281
     1
  3
ACAD_XREC_ROUNDTRIP
360
584
  3
BUMPTILE
360
4CA
  3
DIFFUSETILE
360
4C9
  3
OPACITYTILE
360
4CD
  3
REFLECTIONTILE
360
4CC
  3
REFRACTIONTILE
360
4CE
  3
SPECULARTILE
360
4CB
  0
DICTIONARY
  5
4D8
330
4D7
100
AcDbDictionary
280
     1
281
     1
  3
ACAD_XREC_ROUNDTRIP
360
586
  3
BUMPTILE
360
4DA
  3
DIFFUSETILE
360
4D9
  3
OPACITYTILE
360
4DD
  3
REFLECTIONTILE
360
4DC
  3
REFRACTIONTILE
360
4DE
  3
SPECULARTILE
360
4DB
  0
DICTIONARY
  5
580
330
51A
100
AcDbDictionary
280
     1
281
     1
  3
ACAD_ROUNDTRIP_2008_TABLESTYLE_CELLSTYLEMAP
360
581
  3
ACAD_XREC_ROUNDTRIP
360
5B7
  0
DICTIONARY
  5
591
330
4E5
100
AcDbDictionary
280
     1
281
     1
  3
ACAD_XREC_ROUNDTRIP
360
592
  0
DICTIONARY
  5
58F
330
4E4
100
AcDbDictionary
280
     1
281
     1
  3
ACAD_XREC_ROUNDTRIP
360
590
  0
DICTIONARY
  5
59D
330
4EB
100
AcDbDictionary
280
     1
281
     1
  3
ACAD_XREC_ROUNDTRIP
360
59E
  0
DICTIONARY
  5
5A5
330
4EF
100
AcDbDictionary
280
     1
281
     1
  3
ACAD_XREC_ROUNDTRIP
360
5A6
  0
DICTIONARY
  5
597
330
4E8
100
AcDbDictionary
280
     1
281
     1
  3
ACAD_XREC_ROUNDTRIP
360
598
  0
DICTIONARY
  5
59B
330
4EA
100
AcDbDictionary
280
     1
281
     1
  3
ACAD_XREC_ROUNDTRIP
360
59C
  0
DICTIONARY
  5
5B5
330
4F7
100
AcDbDictionary
280
     1
281
     1
  3
ACAD_XREC_ROUNDTRIP
360
5B6
  0
DICTIONARY
  5
5A3
330
4EE
100
AcDbDictionary
280
     1
281
     1
  3
ACAD_XREC_ROUNDTRIP
360
5A4
  0
DICTIONARY
  5
587
330
4E0
100
AcDbDictionary
280
     1
281
     1
  3
ACAD_XREC_ROUNDTRIP
360
588
  0
DICTIONARY
  5
589
330
4E1
100
AcDbDictionary
280
     1
281
     1
  3
ACAD_XREC_ROUNDTRIP
360
58A
  0
DICTIONARY
  5
58B
330
4E2
100
AcDbDictionary
280
     1
281
     1
  3
ACAD_XREC_ROUNDTRIP
360
58C
  0
DICTIONARY
  5
58D
330
4E3
100
AcDbDictionary
280
     1
281
     1
  3
ACAD_XREC_ROUNDTRIP
360
58E
  0
DICTIONARY
  5
595
330
4E7
100
AcDbDictionary
280
     1
281
     1
  3
ACAD_XREC_ROUNDTRIP
360
596
  0
DICTIONARY
  5
5B1
330
4F5
100
AcDbDictionary
280
     1
281
     1
  3
ACAD_XREC_ROUNDTRIP
360
5B2
  0
DICTIONARY
  5
5A1
330
4ED
100
AcDbDictionary
280
     1
281
     1
  3
ACAD_XREC_ROUNDTRIP
360
5A2
  0
DICTIONARY
  5
5B3
330
4F6
100
AcDbDictionary
280
     1
281
     1
  3
ACAD_XREC_ROUNDTRIP
360
5B4
  0
DICTIONARY
  5
599
330
4E9
100
AcDbDictionary
280
     1
281
     1
  3
ACAD_XREC_ROUNDTRIP
360
59A
  0
DICTIONARY
  5
5AF
330
4F4
100
AcDbDictionary
280
     1
281
     1
  3
ACAD_XREC_ROUNDTRIP
360
5B0
  0
DICTIONARY
  5
5AD
330
4F3
100
AcDbDictionary
280
     1
281
     1
  3
ACAD_XREC_ROUNDTRIP
360
5AE
  0
DICTIONARY
  5
5A7
330
4F0
100
AcDbDictionary
280
     1
281
     1
  3
ACAD_XREC_ROUNDTRIP
360
5A8
  0
DICTIONARY
  5
5A9
330
4F1
100
AcDbDictionary
280
     1
281
     1
  3
ACAD_XREC_ROUNDTRIP
360
5AA
  0
DICTIONARY
  5
59F
330
4EC
100
AcDbDictionary
280
     1
281
     1
  3
ACAD_XREC_ROUNDTRIP
360
5A0
  0
DICTIONARY
  5
593
330
4E6
100
AcDbDictionary
280
     1
281
     1
  3
ACAD_XREC_ROUNDTRIP
360
594
  0
DICTIONARY
  5
5AB
330
4F2
100
AcDbDictionary
280
     1
281
     1
  3
ACAD_XREC_ROUNDTRIP
360
5AC
  0
XRECORD
  5
5BC
102
{ACAD_REACTORS
330
5BB
102
}
330
5BB
100
AcDbXrecord
280
     1
102
SHADEPLOT
 70
     0
102
SHADEPLOTRESLEVEL
 70
     2
102
SHADEPLOTCUSTOMDPI
 70
   300
  0
XRECORD
  5
5BA
102
{ACAD_REACTORS
330
5B9
102
}
330
5B9
100
AcDbXrecord
280
     1
102
SHADEPLOT
 70
     0
102
SHADEPLOTRESLEVEL
 70
     2
102
SHADEPLOTCUSTOMDPI
 70
   300
  0
XRECORD
  5
585
102
{ACAD_REACTORS
330
4D0
102
}
330
4D0
100
AcDbXrecord
280
     1
102
MATERIAL
148
0.0
149
0.0
149
0.0
 93
        0
 94
      127
282
     0
 72
     0
 77
     0
171
     0
175
     0
179
     0
273
     0
  0
XRECORD
  5
4D2
102
{ACAD_REACTORS
330
4D0
102
}
330
4D0
100
AcDbXrecord
280
     1
270
     1
271
     1
  0
XRECORD
  5
4D1
102
{ACAD_REACTORS
330
4D0
102
}
330
4D0
100
AcDbXrecord
280
     1
270
     1
271
     1
  0
XRECORD
  5
4D5
102
{ACAD_REACTORS
330
4D0
102
}
330
4D0
100
AcDbXrecord
280
     1
270
     1
271
     1
  0
XRECORD
  5
4D4
102
{ACAD_REACTORS
330
4D0
102
}
330
4D0
100
AcDbXrecord
280
     1
270
     1
271
     1
  0
XRECORD
  5
4D6
102
{ACAD_REACTORS
330
4D0
102
}
330
4D0
100
AcDbXrecord
280
     1
270
     1
271
     1
  0
XRECORD
  5
4D3
102
{ACAD_REACTORS
330
4D0
102
}
330
4D0
100
AcDbXrecord
280
     1
270
     1
271
     1
  0
XRECORD
  5
584
102
{ACAD_REACTORS
330
4C8
102
}
330
4C8
100
AcDbXrecord
280
     1
102
MATERIAL
148
0.0
149
0.0
149
0.0
 93
        0
 94
      127
282
     0
 72
     0
 77
     0
171
     0
175
     0
179
     0
273
     0
  0
XRECORD
  5
4CA
102
{ACAD_REACTORS
330
4C8
102
}
330
4C8
100
AcDbXrecord
280
     1
270
     1
271
     1
  0
XRECORD
  5
4C9
102
{ACAD_REACTORS
330
4C8
102
}
330
4C8
100
AcDbXrecord
280
     1
270
     1
271
     1
  0
XRECORD
  5
4CD
102
{ACAD_REACTORS
330
4C8
102
}
330
4C8
100
AcDbXrecord
280
     1
270
     1
271
     1
  0
XRECORD
  5
4CC
102
{ACAD_REACTORS
330
4C8
102
}
330
4C8
100
AcDbXrecord
280
     1
270
     1
271
     1
  0
XRECORD
  5
4CE
102
{ACAD_REACTORS
330
4C8
102
}
330
4C8
100
AcDbXrecord
280
     1
270
     1
271
     1
  0
XRECORD
  5
4CB
102
{ACAD_REACTORS
330
4C8
102
}
330
4C8
100
AcDbXrecord
280
     1
270
     1
271
     1
  0
XRECORD
  5
586
102
{ACAD_REACTORS
330
4D8
102
}
330
4D8
100
AcDbXrecord
280
     1
102
MATERIAL
148
0.0
149
0.0
149
0.0
 93
        0
 94
      127
282
     0
 72
     0
 77
     0
171
     0
175
     0
179
     0
273
     0
  0
XRECORD
  5
4DA
102
{ACAD_REACTORS
330
4D8
102
}
330
4D8
100
AcDbXrecord
280
     1
270
     1
271
     1
  0
XRECORD
  5
4D9
102
{ACAD_REACTORS
330
4D8
102
}
330
4D8
100
AcDbXrecord
280
     1
270
     1
271
     1
  0
XRECORD
  5
4DD
102
{ACAD_REACTORS
330
4D8
102
}
330
4D8
100
AcDbXrecord
280
     1
270
     1
271
     1
  0
XRECORD
  5
4DC
102
{ACAD_REACTORS
330
4D8
102
}
330
4D8
100
AcDbXrecord
280
     1
270
     1
271
     1
  0
XRECORD
  5
4DE
102
{ACAD_REACTORS
330
4D8
102
}
330
4D8
100
AcDbXrecord
280
     1
270
     1
271
     1
  0
XRECORD
  5
4DB
102
{ACAD_REACTORS
330
4D8
102
}
330
4D8
100
AcDbXrecord
280
     1
270
     1
271
     1
  0
CELLSTYLEMAP
  5
581
102
{ACAD_REACTORS
330
580
102
}
330
580
100
AcDbCellStyleMap
 90
        3
300
CELLSTYLE
  1
TABLEFORMAT_BEGIN
 90
        5
170
     1
 91
        0
 92
    32768
 62
   257
 93
        1
300
CONTENTFORMAT
  1
CONTENTFORMAT_BEGIN
 90
        0
 91
        0
 92
      512
 93
        0
300

 40
0.0
140
1.0
 94
        5
 62
     0
340
50B
144
0.25
309
CONTENTFORMAT_END
171
     0
 94
        0
309
TABLEFORMAT_END
  1
CELLSTYLE_BEGIN
 90
        1
 91
        1
300
_TITLE
309
CELLSTYLE_END
300
CELLSTYLE
  1
TABLEFORMAT_BEGIN
 90
        5
170
     1
 91
        0
 92
        0
 62
   257
 93
        1
300
CONTENTFORMAT
  1
CONTENTFORMAT_BEGIN
 90
        0
 91
        0
 92
      512
 93
        0
300

 40
0.0
140
1.0
 94
        5
 62
     0
340
50B
144
0.18
309
CONTENTFORMAT_END
171
     0
 94
        0
309
TABLEFORMAT_END
  1
CELLSTYLE_BEGIN
 90
        2
 91
        1
300
_HEADER
309
CELLSTYLE_END
300
CELLSTYLE
  1
TABLEFORMAT_BEGIN
 90
        5
170
     1
 91
        0
 92
        0
 62
   257
 93
        1
300
CONTENTFORMAT
  1
CONTENTFORMAT_BEGIN
 90
        0
 91
        0
 92
      512
 93
        0
300

 40
0.0
140
1.0
 94
        2
 62
     0
340
50B
144
0.18
309
CONTENTFORMAT_END
171
     0
 94
        0
309
TABLEFORMAT_END
  1
CELLSTYLE_BEGIN
 90
        3
 91
        2
300
_DATA
309
CELLSTYLE_END
  0
XRECORD
  5
5B7
102
{ACAD_REACTORS
330
580
102
}
330
580
100
AcDbXrecord
280
     1
102
ACAD_ROUNDTRIP_PRE2007_TABLESTYLE
 90
      512
 91
        0
  1

 92
      512
 93
        0
  2

 94
      512
 95
        0
  3

  0
XRECORD
  5
592
102
{ACAD_REACTORS
330
591
102
}
330
591
100
AcDbXrecord
280
     1
102
RTVSPropertyOp0
 70
     1
102
RTVSPropertyOp1
 70
     1
102
RTVSPropertyOp2
 70
     1
102
RTVSPropertyOp3
 70
     1
102
RTVSPropertyOp4
 70
     1
102
RTVSPropertyOp5
 70
     1
102
RTVSPropertyOp6
 70
     1
102
RTVSPropertyOp7
 70
     1
102
RTVSPropertyOp8
 70
     1
102
RTVSPropertyOp9
 70
     1
102
RTVSPropertyOp10
 70
     1
102
RTVSPropertyOp11
 70
     1
102
RTVSPropertyOp12
 70
     1
102
RTVSPropertyOp13
 70
     1
102
RTVSPropertyOp14
 70
     1
102
RTVSPropertyOp15
 70
     1
102
RTVSPropertyOp16
 70
     1
102
RTVSPropertyOp17
 70
     1
102
RTVSPropertyOp18
 70
     1
102
RTVSPropertyOp19
 70
     1
102
RTVSPropertyOp20
 70
     1
102
RTVSPropertyOp21
 70
     1
102
RTVSPropertyOp22
 70
     1
102
RTVSPropertyOp23
 70
     1
102
RTVSPropertyOp24
 70
     1
102
RTVSPropertyOp25
 70
     1
102
RTVSPropertyOp26
 70
     1
102
RTVSPropertyOp27
 70
     1
102
RTVSPropertyOp28
 70
     1
102
RTVSPropertyOp29
 70
     1
102
RTVSPropertyOp30
 70
     1
102
RTVSPropertyOp31
 70
     1
102
RTVSPropertyOp32
 70
     1
  0
XRECORD
  5
590
102
{ACAD_REACTORS
330
58F
102
}
330
58F
100
AcDbXrecord
280
     1
102
RTVSPropertyOp0
 70
     1
102
RTVSPropertyOp1
 70
     1
102
RTVSPropertyOp2
 70
     1
102
RTVSPropertyOp3
 70
     1
102
RTVSPropertyOp4
 70
     1
102
RTVSPropertyOp5
 70
     1
102
RTVSPropertyOp6
 70
     1
102
RTVSPropertyOp7
 70
     1
102
RTVSPropertyOp8
 70
     1
102
RTVSPropertyOp9
 70
     1
102
RTVSPropertyOp10
 70
     1
102
RTVSPropertyOp11
 70
     1
102
RTVSPropertyOp12
 70
     1
102
RTVSPropertyOp13
 70
     1
102
RTVSPropertyOp14
 70
     1
102
RTVSPropertyOp15
 70
     1
102
RTVSPropertyOp16
 70
     1
102
RTVSPropertyOp17
 70
     1
102
RTVSPropertyOp18
 70
     1
102
RTVSPropertyOp19
 70
     1
102
RTVSPropertyOp20
 70
     1
102
RTVSPropertyOp21
 70
     1
102
RTVSPropertyOp22
 70
     1
102
RTVSPropertyOp23
 70
     1
102
RTVSPropertyOp24
 70
     1
102
RTVSPropertyOp25
 70
     1
102
RTVSPropertyOp26
 70
     1
102
RTVSPropertyOp27
 70
     1
102
RTVSPropertyOp28
 70
     1
102
RTVSPropertyOp29
 70
     1
102
RTVSPropertyOp30
 70
     1
102
RTVSPropertyOp31
 70
     1
102
RTVSPropertyOp32
 70
     1
  0
XRECORD
  5
59E
102
{ACAD_REACTORS
330
59D
102
}
330
59D
100
AcDbXrecord
280
     1
102
RTVSPropertyOp0
 70
     1
102
RTVSPropertyOp1
 70
     1
102
RTVSPropertyOp2
 70
     1
102
RTVSPropertyOp3
 70
     1
102
RTVSPropertyOp4
 70
     1
102
RTVSPropertyOp5
 70
     1
102
RTVSPropertyOp6
 70
     1
102
RTVSPropertyOp7
 70
     1
102
RTVSPropertyOp8
 70
     1
102
RTVSPropertyOp9
 70
     1
102
RTVSPropertyOp10
 70
     1
102
RTVSPropertyOp11
 70
     1
102
RTVSPropertyOp12
 70
     1
102
RTVSPropertyOp13
 70
     1
102
RTVSPropertyOp14
 70
     1
102
RTVSPropertyOp15
 70
     1
102
RTVSPropertyOp16
 70
     1
102
RTVSPropertyOp17
 70
     1
102
RTVSPropertyOp18
 70
     1
102
RTVSPropertyOp19
 70
     1
102
RTVSPropertyOp20
 70
     1
102
RTVSPropertyOp21
 70
     1
102
RTVSPropertyOp22
 70
     1
102
RTVSPropertyOp23
 70
     1
102
RTVSPropertyOp24
 70
     1
102
RTVSPropertyOp25
 70
     1
102
RTVSPropertyOp26
 70
     1
102
RTVSPropertyOp27
 70
     1
102
RTVSPropertyOp28
 70
     1
102
RTVSPropertyOp29
 70
     1
102
RTVSPropertyOp30
 70
     1
102
RTVSPropertyOp31
 70
     1
102
RTVSPropertyOp32
 70
     1
  0
XRECORD
  5
5A6
102
{ACAD_REACTORS
330
5A5
102
}
330
5A5
100
AcDbXrecord
280
     1
102
RTVSPropertyOp0
 70
     1
102
RTVSPropertyOp1
 70
     1
102
RTVSPropertyOp2
 70
     1
102
RTVSPropertyOp3
 70
     1
102
RTVSPropertyOp4
 70
     1
102
RTVSPropertyOp5
 70
     1
102
RTVSPropertyOp6
 70
     1
102
RTVSPropertyOp7
 70
     1
102
RTVSPropertyOp8
 70
     1
102
RTVSPropertyOp9
 70
     1
102
RTVSPropertyOp10
 70
     1
102
RTVSPropertyOp11
 70
     1
102
RTVSPropertyOp12
 70
     1
102
RTVSPropertyOp13
 70
     1
102
RTVSPropertyOp14
 70
     1
102
RTVSPropertyOp15
 70
     1
102
RTVSPropertyOp16
 70
     1
102
RTVSPropertyOp17
 70
     1
102
RTVSPropertyOp18
 70
     1
102
RTVSPropertyOp19
 70
     1
102
RTVSPropertyOp20
 70
     1
102
RTVSPropertyOp21
 70
     1
102
RTVSPropertyOp22
 70
     1
102
RTVSPropertyOp23
 70
     1
102
RTVSPropertyOp24
 70
     1
102
RTVSPropertyOp25
 70
     1
102
RTVSPropertyOp26
 70
     1
102
RTVSPropertyOp27
 70
     1
102
RTVSPropertyOp28
 70
     1
102
RTVSPropertyOp29
 70
     1
102
RTVSPropertyOp30
 70
     1
102
RTVSPropertyOp31
 70
     1
102
RTVSPropertyOp32
 70
     1
  0
XRECORD
  5
598
102
{ACAD_REACTORS
330
597
102
}
330
597
100
AcDbXrecord
280
     1
102
RTVSPropertyOp0
 70
     1
102
RTVSPropertyOp1
 70
     1
102
RTVSPropertyOp2
 70
     1
102
RTVSPropertyOp3
 70
     1
102
RTVSPropertyOp4
 70
     1
102
RTVSPropertyOp5
 70
     1
102
RTVSPropertyOp6
 70
     1
102
RTVSPropertyOp7
 70
     1
102
RTVSPropertyOp8
 70
     1
102
RTVSPropertyOp9
 70
     1
102
RTVSPropertyOp10
 70
     1
102
RTVSPropertyOp11
 70
     1
102
RTVSPropertyOp12
 70
     1
102
RTVSPropertyOp13
 70
     1
102
RTVSPropertyOp14
 70
     1
102
RTVSPropertyOp15
 70
     1
102
RTVSPropertyOp16
 70
     1
102
RTVSPropertyOp17
 70
     1
102
RTVSPropertyOp18
 70
     1
102
RTVSPropertyOp19
 70
     1
102
RTVSPropertyOp20
 70
     1
102
RTVSPropertyOp21
 70
     1
102
RTVSPropertyOp22
 70
     1
102
RTVSPropertyOp23
 70
     1
102
RTVSPropertyOp24
 70
     1
102
RTVSPropertyOp25
 70
     1
102
RTVSPropertyOp26
 70
     1
102
RTVSPropertyOp27
 70
     1
102
RTVSPropertyOp28
 70
     1
102
RTVSPropertyOp29
 70
     1
102
RTVSPropertyOp30
 70
     1
102
RTVSPropertyOp31
 70
     1
102
RTVSPropertyOp32
 70
     1
  0
XRECORD
  5
59C
102
{ACAD_REACTORS
330
59B
102
}
330
59B
100
AcDbXrecord
280
     1
102
RTVSPropertyOp0
 70
     1
102
RTVSPropertyOp1
 70
     1
102
RTVSPropertyOp2
 70
     1
102
RTVSPropertyOp3
 70
     1
102
RTVSPropertyOp4
 70
     1
102
RTVSPropertyOp5
 70
     1
102
RTVSPropertyOp6
 70
     1
102
RTVSPropertyOp7
 70
     1
102
RTVSPropertyOp8
 70
     1
102
RTVSPropertyOp9
 70
     1
102
RTVSPropertyOp10
 70
     1
102
RTVSPropertyOp11
 70
     1
102
RTVSPropertyOp12
 70
     1
102
RTVSPropertyOp13
 70
     1
102
RTVSPropertyOp14
 70
     1
102
RTVSPropertyOp15
 70
     1
102
RTVSPropertyOp16
 70
     1
102
RTVSPropertyOp17
 70
     1
102
RTVSPropertyOp18
 70
     1
102
RTVSPropertyOp19
 70
     1
102
RTVSPropertyOp20
 70
     1
102
RTVSPropertyOp21
 70
     1
102
RTVSPropertyOp22
 70
     1
102
RTVSPropertyOp23
 70
     1
102
RTVSPropertyOp24
 70
     1
102
RTVSPropertyOp25
 70
     1
102
RTVSPropertyOp26
 70
     1
102
RTVSPropertyOp27
 70
     1
102
RTVSPropertyOp28
 70
     1
102
RTVSPropertyOp29
 70
     1
102
RTVSPropertyOp30
 70
     1
102
RTVSPropertyOp31
 70
     1
102
RTVSPropertyOp32
 70
     1
  0
XRECORD
  5
5B6
102
{ACAD_REACTORS
330
5B5
102
}
330
5B5
100
AcDbXrecord
280
     1
102
RTVSPropertyOp0
 70
     0
102
RTVSPropertyOp1
 70
     0
102
RTVSPropertyOp2
 70
     0
102
RTVSPropertyOp3
 70
     0
102
RTVSPropertyOp4
 70
     0
102
RTVSPropertyOp5
 70
     0
102
RTVSPropertyOp6
 70
     0
102
RTVSPropertyOp7
 70
     0
102
RTVSPropertyOp8
 70
     0
102
RTVSPropertyOp9
 70
     0
102
RTVSPropertyOp10
 70
     0
102
RTVSPropertyOp11
 70
     0
102
RTVSPropertyOp12
 70
     0
102
RTVSPropertyOp13
 70
     0
102
RTVSPropertyOp14
 70
     2
102
RTVSPropertyOp15
 70
     0
102
RTVSPropertyOp16
 70
     0
102
RTVSPropertyOp17
 70
     0
102
RTVSPropertyOp18
 70
     0
102
RTVSPropertyOp19
 70
     0
102
RTVSPropertyOp20
 70
     0
102
RTVSPropertyOp21
 70
     0
102
RTVSPropertyOp22
 70
     0
102
RTVSPropertyOp23
 70
     0
102
RTVSPropertyOp24
 70
     0
102
RTVSPropertyOp25
 70
     0
102
RTVSPropertyOp26
 70
     0
102
RTVSPropertyOp27
 70
     0
102
RTVSPropertyOp28
 70
     0
102
RTVSPropertyOp29
 70
     0
102
RTVSPropertyOp30
 70
     0
102
RTVSPropertyOp31
 70
     0
102
RTVSPropertyOp32
 70
     0
  0
XRECORD
  5
5A4
102
{ACAD_REACTORS
330
5A3
102
}
330
5A3
100
AcDbXrecord
280
     1
102
RTVSPropertyOp0
 70
     1
102
RTVSPropertyOp1
 70
     1
102
RTVSPropertyOp2
 70
     1
102
RTVSPropertyOp3
 70
     1
102
RTVSPropertyOp4
 70
     1
102
RTVSPropertyOp5
 70
     1
102
RTVSPropertyOp6
 70
     1
102
RTVSPropertyOp7
 70
     1
102
RTVSPropertyOp8
 70
     1
102
RTVSPropertyOp9
 70
     1
102
RTVSPropertyOp10
 70
     1
102
RTVSPropertyOp11
 70
     1
102
RTVSPropertyOp12
 70
     1
102
RTVSPropertyOp13
 70
     1
102
RTVSPropertyOp14
 70
     1
102
RTVSPropertyOp15
 70
     1
102
RTVSPropertyOp16
 70
     1
102
RTVSPropertyOp17
 70
     1
102
RTVSPropertyOp18
 70
     1
102
RTVSPropertyOp19
 70
     1
102
RTVSPropertyOp20
 70
     1
102
RTVSPropertyOp21
 70
     1
102
RTVSPropertyOp22
 70
     1
102
RTVSPropertyOp23
 70
     1
102
RTVSPropertyOp24
 70
     1
102
RTVSPropertyOp25
 70
     1
102
RTVSPropertyOp26
 70
     1
102
RTVSPropertyOp27
 70
     1
102
RTVSPropertyOp28
 70
     1
102
RTVSPropertyOp29
 70
     1
102
RTVSPropertyOp30
 70
     1
102
RTVSPropertyOp31
 70
     1
102
RTVSPropertyOp32
 70
     1
  0
XRECORD
  5
588
102
{ACAD_REACTORS
330
587
102
}
330
587
100
AcDbXrecord
280
     1
102
RTVSPropertyOp0
 70
     1
102
RTVSPropertyOp1
 70
     1
102
RTVSPropertyOp2
 70
     1
102
RTVSPropertyOp3
 70
     1
102
RTVSPropertyOp4
 70
     1
102
RTVSPropertyOp5
 70
     1
102
RTVSPropertyOp6
 70
     1
102
RTVSPropertyOp7
 70
     1
102
RTVSPropertyOp8
 70
     1
102
RTVSPropertyOp9
 70
     1
102
RTVSPropertyOp10
 70
     1
102
RTVSPropertyOp11
 70
     1
102
RTVSPropertyOp12
 70
     1
102
RTVSPropertyOp13
 70
     1
102
RTVSPropertyOp14
 70
     1
102
RTVSPropertyOp15
 70
     1
102
RTVSPropertyOp16
 70
     1
102
RTVSPropertyOp17
 70
     1
102
RTVSPropertyOp18
 70
     1
102
RTVSPropertyOp19
 70
     1
102
RTVSPropertyOp20
 70
     1
102
RTVSPropertyOp21
 70
     1
102
RTVSPropertyOp22
 70
     1
102
RTVSPropertyOp23
 70
     1
102
RTVSPropertyOp24
 70
     1
102
RTVSPropertyOp25
 70
     1
102
RTVSPropertyOp26
 70
     1
102
RTVSPropertyOp27
 70
     1
102
RTVSPropertyOp28
 70
     1
102
RTVSPropertyOp29
 70
     1
102
RTVSPropertyOp30
 70
     1
102
RTVSPropertyOp31
 70
     1
102
RTVSPropertyOp32
 70
     1
  0
XRECORD
  5
58A
102
{ACAD_REACTORS
330
589
102
}
330
589
100
AcDbXrecord
280
     1
102
RTVSPropertyOp0
 70
     1
102
RTVSPropertyOp1
 70
     1
102
RTVSPropertyOp2
 70
     1
102
RTVSPropertyOp3
 70
     1
102
RTVSPropertyOp4
 70
     1
102
RTVSPropertyOp5
 70
     1
102
RTVSPropertyOp6
 70
     1
102
RTVSPropertyOp7
 70
     1
102
RTVSPropertyOp8
 70
     1
102
RTVSPropertyOp9
 70
     1
102
RTVSPropertyOp10
 70
     1
102
RTVSPropertyOp11
 70
     1
102
RTVSPropertyOp12
 70
     1
102
RTVSPropertyOp13
 70
     1
102
RTVSPropertyOp14
 70
     1
102
RTVSPropertyOp15
 70
     1
102
RTVSPropertyOp16
 70
     1
102
RTVSPropertyOp17
 70
     1
102
RTVSPropertyOp18
 70
     1
102
RTVSPropertyOp19
 70
     1
102
RTVSPropertyOp20
 70
     1
102
RTVSPropertyOp21
 70
     1
102
RTVSPropertyOp22
 70
     1
102
RTVSPropertyOp23
 70
     1
102
RTVSPropertyOp24
 70
     1
102
RTVSPropertyOp25
 70
     1
102
RTVSPropertyOp26
 70
     1
102
RTVSPropertyOp27
 70
     1
102
RTVSPropertyOp28
 70
     1
102
RTVSPropertyOp29
 70
     1
102
RTVSPropertyOp30
 70
     1
102
RTVSPropertyOp31
 70
     1
102
RTVSPropertyOp32
 70
     1
  0
XRECORD
  5
58C
102
{ACAD_REACTORS
330
58B
102
}
330
58B
100
AcDbXrecord
280
     1
102
RTVSPropertyOp0
 70
     1
102
RTVSPropertyOp1
 70
     1
102
RTVSPropertyOp2
 70
     1
102
RTVSPropertyOp3
 70
     1
102
RTVSPropertyOp4
 70
     1
102
RTVSPropertyOp5
 70
     1
102
RTVSPropertyOp6
 70
     1
102
RTVSPropertyOp7
 70
     1
102
RTVSPropertyOp8
 70
     1
102
RTVSPropertyOp9
 70
     1
102
RTVSPropertyOp10
 70
     1
102
RTVSPropertyOp11
 70
     1
102
RTVSPropertyOp12
 70
     1
102
RTVSPropertyOp13
 70
     1
102
RTVSPropertyOp14
 70
     1
102
RTVSPropertyOp15
 70
     1
102
RTVSPropertyOp16
 70
     1
102
RTVSPropertyOp17
 70
     1
102
RTVSPropertyOp18
 70
     1
102
RTVSPropertyOp19
 70
     1
102
RTVSPropertyOp20
 70
     1
102
RTVSPropertyOp21
 70
     1
102
RTVSPropertyOp22
 70
     1
102
RTVSPropertyOp23
 70
     1
102
RTVSPropertyOp24
 70
     1
102
RTVSPropertyOp25
 70
     1
102
RTVSPropertyOp26
 70
     1
102
RTVSPropertyOp27
 70
     1
102
RTVSPropertyOp28
 70
     1
102
RTVSPropertyOp29
 70
     1
102
RTVSPropertyOp30
 70
     1
102
RTVSPropertyOp31
 70
     1
102
RTVSPropertyOp32
 70
     1
  0
XRECORD
  5
58E
102
{ACAD_REACTORS
330
58D
102
}
330
58D
100
AcDbXrecord
280
     1
102
RTVSPropertyOp0
 70
     1
102
RTVSPropertyOp1
 70
     1
102
RTVSPropertyOp2
 70
     1
102
RTVSPropertyOp3
 70
     1
102
RTVSPropertyOp4
 70
     1
102
RTVSPropertyOp5
 70
     1
102
RTVSPropertyOp6
 70
     1
102
RTVSPropertyOp7
 70
     1
102
RTVSPropertyOp8
 70
     1
102
RTVSPropertyOp9
 70
     1
102
RTVSPropertyOp10
 70
     1
102
RTVSPropertyOp11
 70
     1
102
RTVSPropertyOp12
 70
     1
102
RTVSPropertyOp13
 70
     1
102
RTVSPropertyOp14
 70
     1
102
RTVSPropertyOp15
 70
     1
102
RTVSPropertyOp16
 70
     1
102
RTVSPropertyOp17
 70
     1
102
RTVSPropertyOp18
 70
     1
102
RTVSPropertyOp19
 70
     1
102
RTVSPropertyOp20
 70
     1
102
RTVSPropertyOp21
 70
     1
102
RTVSPropertyOp22
 70
     1
102
RTVSPropertyOp23
 70
     1
102
RTVSPropertyOp24
 70
     1
102
RTVSPropertyOp25
 70
     1
102
RTVSPropertyOp26
 70
     1
102
RTVSPropertyOp27
 70
     1
102
RTVSPropertyOp28
 70
     1
102
RTVSPropertyOp29
 70
     1
102
RTVSPropertyOp30
 70
     1
102
RTVSPropertyOp31
 70
     1
102
RTVSPropertyOp32
 70
     1
  0
XRECORD
  5
596
102
{ACAD_REACTORS
330
595
102
}
330
595
100
AcDbXrecord
280
     1
102
RTVSPropertyOp0
 70
     1
102
RTVSPropertyOp1
 70
     1
102
RTVSPropertyOp2
 70
     1
102
RTVSPropertyOp3
 70
     1
102
RTVSPropertyOp4
 70
     1
102
RTVSPropertyOp5
 70
     1
102
RTVSPropertyOp6
 70
     1
102
RTVSPropertyOp7
 70
     1
102
RTVSPropertyOp8
 70
     1
102
RTVSPropertyOp9
 70
     1
102
RTVSPropertyOp10
 70
     1
102
RTVSPropertyOp11
 70
     1
102
RTVSPropertyOp12
 70
     1
102
RTVSPropertyOp13
 70
     1
102
RTVSPropertyOp14
 70
     1
102
RTVSPropertyOp15
 70
     1
102
RTVSPropertyOp16
 70
     1
102
RTVSPropertyOp17
 70
     1
102
RTVSPropertyOp18
 70
     1
102
RTVSPropertyOp19
 70
     1
102
RTVSPropertyOp20
 70
     1
102
RTVSPropertyOp21
 70
     1
102
RTVSPropertyOp22
 70
     1
102
RTVSPropertyOp23
 70
     1
102
RTVSPropertyOp24
 70
     1
102
RTVSPropertyOp25
 70
     1
102
RTVSPropertyOp26
 70
     1
102
RTVSPropertyOp27
 70
     1
102
RTVSPropertyOp28
 70
     1
102
RTVSPropertyOp29
 70
     1
102
RTVSPropertyOp30
 70
     1
102
RTVSPropertyOp31
 70
     1
102
RTVSPropertyOp32
 70
     1
  0
XRECORD
  5
5B2
102
{ACAD_REACTORS
330
5B1
102
}
330
5B1
100
AcDbXrecord
280
     1
102
RTVSPropertyOp0
 70
     0
102
RTVSPropertyOp1
 70
     0
102
RTVSPropertyOp2
 70
     0
102
RTVSPropertyOp3
 70
     0
102
RTVSPropertyOp4
 70
     0
102
RTVSPropertyOp5
 70
     0
102
RTVSPropertyOp6
 70
     0
102
RTVSPropertyOp7
 70
     0
102
RTVSPropertyOp8
 70
     0
102
RTVSPropertyOp9
 70
     0
102
RTVSPropertyOp10
 70
     0
102
RTVSPropertyOp11
 70
     0
102
RTVSPropertyOp12
 70
     0
102
RTVSPropertyOp13
 70
     0
102
RTVSPropertyOp14
 70
     2
102
RTVSPropertyOp15
 70
     0
102
RTVSPropertyOp16
 70
     0
102
RTVSPropertyOp17
 70
     0
102
RTVSPropertyOp18
 70
     0
102
RTVSPropertyOp19
 70
     0
102
RTVSPropertyOp20
 70
     0
102
RTVSPropertyOp21
 70
     0
102
RTVSPropertyOp22
 70
     0
102
RTVSPropertyOp23
 70
     0
102
RTVSPropertyOp24
 70
     0
102
RTVSPropertyOp25
 70
     0
102
RTVSPropertyOp26
 70
     0
102
RTVSPropertyOp27
 70
     0
102
RTVSPropertyOp28
 70
     0
102
RTVSPropertyOp29
 70
     0
102
RTVSPropertyOp30
 70
     0
102
RTVSPropertyOp31
 70
     0
102
RTVSPropertyOp32
 70
     0
  0
XRECORD
  5
5A2
102
{ACAD_REACTORS
330
5A1
102
}
330
5A1
100
AcDbXrecord
280
     1
102
RTVSPropertyOp0
 70
     1
102
RTVSPropertyOp1
 70
     1
102
RTVSPropertyOp2
 70
     1
102
RTVSPropertyOp3
 70
     1
102
RTVSPropertyOp4
 70
     1
102
RTVSPropertyOp5
 70
     1
102
RTVSPropertyOp6
 70
     1
102
RTVSPropertyOp7
 70
     1
102
RTVSPropertyOp8
 70
     1
102
RTVSPropertyOp9
 70
     1
102
RTVSPropertyOp10
 70
     1
102
RTVSPropertyOp11
 70
     1
102
RTVSPropertyOp12
 70
     1
102
RTVSPropertyOp13
 70
     1
102
RTVSPropertyOp14
 70
     1
102
RTVSPropertyOp15
 70
     1
102
RTVSPropertyOp16
 70
     1
102
RTVSPropertyOp17
 70
     1
102
RTVSPropertyOp18
 70
     1
102
RTVSPropertyOp19
 70
     1
102
RTVSPropertyOp20
 70
     1
102
RTVSPropertyOp21
 70
     1
102
RTVSPropertyOp22
 70
     1
102
RTVSPropertyOp23
 70
     1
102
RTVSPropertyOp24
 70
     1
102
RTVSPropertyOp25
 70
     1
102
RTVSPropertyOp26
 70
     1
102
RTVSPropertyOp27
 70
     1
102
RTVSPropertyOp28
 70
     1
102
RTVSPropertyOp29
 70
     1
102
RTVSPropertyOp30
 70
     1
102
RTVSPropertyOp31
 70
     1
102
RTVSPropertyOp32
 70
     1
  0
XRECORD
  5
5B4
102
{ACAD_REACTORS
330
5B3
102
}
330
5B3
100
AcDbXrecord
280
     1
102
RTVSPropertyOp0
 70
     0
102
RTVSPropertyOp1
 70
     0
102
RTVSPropertyOp2
 70
     0
102
RTVSPropertyOp3
 70
     0
102
RTVSPropertyOp4
 70
     0
102
RTVSPropertyOp5
 70
     0
102
RTVSPropertyOp6
 70
     0
102
RTVSPropertyOp7
 70
     0
102
RTVSPropertyOp8
 70
     0
102
RTVSPropertyOp9
 70
     0
102
RTVSPropertyOp10
 70
     0
102
RTVSPropertyOp11
 70
     0
102
RTVSPropertyOp12
 70
     0
102
RTVSPropertyOp13
 70
     0
102
RTVSPropertyOp14
 70
     2
102
RTVSPropertyOp15
 70
     0
102
RTVSPropertyOp16
 70
     0
102
RTVSPropertyOp17
 70
     0
102
RTVSPropertyOp18
 70
     0
102
RTVSPropertyOp19
 70
     0
102
RTVSPropertyOp20
 70
     0
102
RTVSPropertyOp21
 70
     0
102
RTVSPropertyOp22
 70
     0
102
RTVSPropertyOp23
 70
     0
102
RTVSPropertyOp24
 70
     0
102
RTVSPropertyOp25
 70
     0
102
RTVSPropertyOp26
 70
     0
102
RTVSPropertyOp27
 70
     0
102
RTVSPropertyOp28
 70
     0
102
RTVSPropertyOp29
 70
     0
102
RTVSPropertyOp30
 70
     0
102
RTVSPropertyOp31
 70
     0
102
RTVSPropertyOp32
 70
     0
  0
XRECORD
  5
59A
102
{ACAD_REACTORS
330
599
102
}
330
599
100
AcDbXrecord
280
     1
102
RTVSPropertyOp0
 70
     1
102
RTVSPropertyOp1
 70
     1
102
RTVSPropertyOp2
 70
     1
102
RTVSPropertyOp3
 70
     1
102
RTVSPropertyOp4
 70
     1
102
RTVSPropertyOp5
 70
     1
102
RTVSPropertyOp6
 70
     1
102
RTVSPropertyOp7
 70
     1
102
RTVSPropertyOp8
 70
     1
102
RTVSPropertyOp9
 70
     1
102
RTVSPropertyOp10
 70
     1
102
RTVSPropertyOp11
 70
     1
102
RTVSPropertyOp12
 70
     1
102
RTVSPropertyOp13
 70
     1
102
RTVSPropertyOp14
 70
     1
102
RTVSPropertyOp15
 70
     1
102
RTVSPropertyOp16
 70
     1
102
RTVSPropertyOp17
 70
     1
102
RTVSPropertyOp18
 70
     1
102
RTVSPropertyOp19
 70
     1
102
RTVSPropertyOp20
 70
     1
102
RTVSPropertyOp21
 70
     1
102
RTVSPropertyOp22
 70
     1
102
RTVSPropertyOp23
 70
     1
102
RTVSPropertyOp24
 70
     1
102
RTVSPropertyOp25
 70
     1
102
RTVSPropertyOp26
 70
     1
102
RTVSPropertyOp27
 70
     1
102
RTVSPropertyOp28
 70
     1
102
RTVSPropertyOp29
 70
     1
102
RTVSPropertyOp30
 70
     1
102
RTVSPropertyOp31
 70
     1
102
RTVSPropertyOp32
 70
     1
  0
XRECORD
  5
5B0
102
{ACAD_REACTORS
330
5AF
102
}
330
5AF
100
AcDbXrecord
280
     1
102
RTVSPropertyOp0
 70
     1
102
RTVSPropertyOp1
 70
     1
102
RTVSPropertyOp2
 70
     1
102
RTVSPropertyOp3
 70
     1
102
RTVSPropertyOp4
 70
     1
102
RTVSPropertyOp5
 70
     1
102
RTVSPropertyOp6
 70
     1
102
RTVSPropertyOp7
 70
     1
102
RTVSPropertyOp8
 70
     1
102
RTVSPropertyOp9
 70
     1
102
RTVSPropertyOp10
 70
     1
102
RTVSPropertyOp11
 70
     1
102
RTVSPropertyOp12
 70
     1
102
RTVSPropertyOp13
 70
     1
102
RTVSPropertyOp14
 70
     1
102
RTVSPropertyOp15
 70
     1
102
RTVSPropertyOp16
 70
     1
102
RTVSPropertyOp17
 70
     1
102
RTVSPropertyOp18
 70
     1
102
RTVSPropertyOp19
 70
     1
102
RTVSPropertyOp20
 70
     1
102
RTVSPropertyOp21
 70
     1
102
RTVSPropertyOp22
 70
     1
102
RTVSPropertyOp23
 70
     1
102
RTVSPropertyOp24
 70
     1
102
RTVSPropertyOp25
 70
     1
102
RTVSPropertyOp26
 70
     1
102
RTVSPropertyOp27
 70
     1
102
RTVSPropertyOp28
 70
     1
102
RTVSPropertyOp29
 70
     1
102
RTVSPropertyOp30
 70
     1
102
RTVSPropertyOp31
 70
     1
102
RTVSPropertyOp32
 70
     1
  0
XRECORD
  5
5AE
102
{ACAD_REACTORS
330
5AD
102
}
330
5AD
100
AcDbXrecord
280
     1
102
RTVSPropertyOp0
 70
     1
102
RTVSPropertyOp1
 70
     1
102
RTVSPropertyOp2
 70
     1
102
RTVSPropertyOp3
 70
     1
102
RTVSPropertyOp4
 70
     1
102
RTVSPropertyOp5
 70
     1
102
RTVSPropertyOp6
 70
     1
102
RTVSPropertyOp7
 70
     1
102
RTVSPropertyOp8
 70
     1
102
RTVSPropertyOp9
 70
     1
102
RTVSPropertyOp10
 70
     1
102
RTVSPropertyOp11
 70
     1
102
RTVSPropertyOp12
 70
     1
102
RTVSPropertyOp13
 70
     1
102
RTVSPropertyOp14
 70
     1
102
RTVSPropertyOp15
 70
     1
102
RTVSPropertyOp16
 70
     1
102
RTVSPropertyOp17
 70
     1
102
RTVSPropertyOp18
 70
     1
102
RTVSPropertyOp19
 70
     1
102
RTVSPropertyOp20
 70
     1
102
RTVSPropertyOp21
 70
     1
102
RTVSPropertyOp22
 70
     1
102
RTVSPropertyOp23
 70
     1
102
RTVSPropertyOp24
 70
     1
102
RTVSPropertyOp25
 70
     1
102
RTVSPropertyOp26
 70
     1
102
RTVSPropertyOp27
 70
     1
102
RTVSPropertyOp28
 70
     1
102
RTVSPropertyOp29
 70
     1
102
RTVSPropertyOp30
 70
     1
102
RTVSPropertyOp31
 70
     1
102
RTVSPropertyOp32
 70
     1
  0
XRECORD
  5
5A8
102
{ACAD_REACTORS
330
5A7
102
}
330
5A7
100
AcDbXrecord
280
     1
102
RTVSPropertyOp0
 70
     1
102
RTVSPropertyOp1
 70
     1
102
RTVSPropertyOp2
 70
     1
102
RTVSPropertyOp3
 70
     1
102
RTVSPropertyOp4
 70
     1
102
RTVSPropertyOp5
 70
     1
102
RTVSPropertyOp6
 70
     1
102
RTVSPropertyOp7
 70
     1
102
RTVSPropertyOp8
 70
     1
102
RTVSPropertyOp9
 70
     1
102
RTVSPropertyOp10
 70
     1
102
RTVSPropertyOp11
 70
     1
102
RTVSPropertyOp12
 70
     1
102
RTVSPropertyOp13
 70
     1
102
RTVSPropertyOp14
 70
     1
102
RTVSPropertyOp15
 70
     1
102
RTVSPropertyOp16
 70
     1
102
RTVSPropertyOp17
 70
     1
102
RTVSPropertyOp18
 70
     1
102
RTVSPropertyOp19
 70
     1
102
RTVSPropertyOp20
 70
     1
102
RTVSPropertyOp21
 70
     1
102
RTVSPropertyOp22
 70
     1
102
RTVSPropertyOp23
 70
     1
102
RTVSPropertyOp24
 70
     1
102
RTVSPropertyOp25
 70
     1
102
RTVSPropertyOp26
 70
     1
102
RTVSPropertyOp27
 70
     1
102
RTVSPropertyOp28
 70
     1
102
RTVSPropertyOp29
 70
     1
102
RTVSPropertyOp30
 70
     1
102
RTVSPropertyOp31
 70
     1
102
RTVSPropertyOp32
 70
     1
  0
XRECORD
  5
5AA
102
{ACAD_REACTORS
330
5A9
102
}
330
5A9
100
AcDbXrecord
280
     1
102
RTVSPropertyOp0
 70
     1
102
RTVSPropertyOp1
 70
     1
102
RTVSPropertyOp2
 70
     1
102
RTVSPropertyOp3
 70
     1
102
RTVSPropertyOp4
 70
     1
102
RTVSPropertyOp5
 70
     1
102
RTVSPropertyOp6
 70
     1
102
RTVSPropertyOp7
 70
     1
102
RTVSPropertyOp8
 70
     1
102
RTVSPropertyOp9
 70
     1
102
RTVSPropertyOp10
 70
     1
102
RTVSPropertyOp11
 70
     1
102
RTVSPropertyOp12
 70
     1
102
RTVSPropertyOp13
 70
     1
102
RTVSPropertyOp14
 70
     1
102
RTVSPropertyOp15
 70
     1
102
RTVSPropertyOp16
 70
     1
102
RTVSPropertyOp17
 70
     1
102
RTVSPropertyOp18
 70
     1
102
RTVSPropertyOp19
 70
     1
102
RTVSPropertyOp20
 70
     1
102
RTVSPropertyOp21
 70
     1
102
RTVSPropertyOp22
 70
     1
102
RTVSPropertyOp23
 70
     1
102
RTVSPropertyOp24
 70
     1
102
RTVSPropertyOp25
 70
     1
102
RTVSPropertyOp26
 70
     1
102
RTVSPropertyOp27
 70
     1
102
RTVSPropertyOp28
 70
     1
102
RTVSPropertyOp29
 70
     1
102
RTVSPropertyOp30
 70
     1
102
RTVSPropertyOp31
 70
     1
102
RTVSPropertyOp32
 70
     1
  0
XRECORD
  5
5A0
102
{ACAD_REACTORS
330
59F
102
}
330
59F
100
AcDbXrecord
280
     1
102
RTVSPropertyOp0
 70
     1
102
RTVSPropertyOp1
 70
     1
102
RTVSPropertyOp2
 70
     1
102
RTVSPropertyOp3
 70
     1
102
RTVSPropertyOp4
 70
     1
102
RTVSPropertyOp5
 70
     1
102
RTVSPropertyOp6
 70
     1
102
RTVSPropertyOp7
 70
     1
102
RTVSPropertyOp8
 70
     1
102
RTVSPropertyOp9
 70
     1
102
RTVSPropertyOp10
 70
     1
102
RTVSPropertyOp11
 70
     1
102
RTVSPropertyOp12
 70
     1
102
RTVSPropertyOp13
 70
     1
102
RTVSPropertyOp14
 70
     1
102
RTVSPropertyOp15
 70
     1
102
RTVSPropertyOp16
 70
     1
102
RTVSPropertyOp17
 70
     1
102
RTVSPropertyOp18
 70
     1
102
RTVSPropertyOp19
 70
     1
102
RTVSPropertyOp20
 70
     1
102
RTVSPropertyOp21
 70
     1
102
RTVSPropertyOp22
 70
     1
102
RTVSPropertyOp23
 70
     1
102
RTVSPropertyOp24
 70
     1
102
RTVSPropertyOp25
 70
     1
102
RTVSPropertyOp26
 70
     1
102
RTVSPropertyOp27
 70
     1
102
RTVSPropertyOp28
 70
     1
102
RTVSPropertyOp29
 70
     1
102
RTVSPropertyOp30
 70
     1
102
RTVSPropertyOp31
 70
     1
102
RTVSPropertyOp32
 70
     1
  0
XRECORD
  5
594
102
{ACAD_REACTORS
330
593
102
}
330
593
100
AcDbXrecord
280
     1
102
RTVSPropertyOp0
 70
     1
102
RTVSPropertyOp1
 70
     1
102
RTVSPropertyOp2
 70
     1
102
RTVSPropertyOp3
 70
     1
102
RTVSPropertyOp4
 70
     1
102
RTVSPropertyOp5
 70
     1
102
RTVSPropertyOp6
 70
     1
102
RTVSPropertyOp7
 70
     1
102
RTVSPropertyOp8
 70
     1
102
RTVSPropertyOp9
 70
     1
102
RTVSPropertyOp10
 70
     1
102
RTVSPropertyOp11
 70
     1
102
RTVSPropertyOp12
 70
     1
102
RTVSPropertyOp13
 70
     1
102
RTVSPropertyOp14
 70
     1
102
RTVSPropertyOp15
 70
     1
102
RTVSPropertyOp16
 70
     1
102
RTVSPropertyOp17
 70
     1
102
RTVSPropertyOp18
 70
     1
102
RTVSPropertyOp19
 70
     1
102
RTVSPropertyOp20
 70
     1
102
RTVSPropertyOp21
 70
     1
102
RTVSPropertyOp22
 70
     1
102
RTVSPropertyOp23
 70
     1
102
RTVSPropertyOp24
 70
     1
102
RTVSPropertyOp25
 70
     1
102
RTVSPropertyOp26
 70
     1
102
RTVSPropertyOp27
 70
     1
102
RTVSPropertyOp28
 70
     1
102
RTVSPropertyOp29
 70
     1
102
RTVSPropertyOp30
 70
     1
102
RTVSPropertyOp31
 70
     1
102
RTVSPropertyOp32
 70
     1
  0
XRECORD
  5
5AC
102
{ACAD_REACTORS
330
5AB
102
}
330
5AB
100
AcDbXrecord
280
     1
102
RTVSPropertyOp0
 70
     1
102
RTVSPropertyOp1
 70
     1
102
RTVSPropertyOp2
 70
     1
102
RTVSPropertyOp3
 70
     1
102
RTVSPropertyOp4
 70
     1
102
RTVSPropertyOp5
 70
     1
102
RTVSPropertyOp6
 70
     1
102
RTVSPropertyOp7
 70
     1
102
RTVSPropertyOp8
 70
     1
102
RTVSPropertyOp9
 70
     1
102
RTVSPropertyOp10
 70
     1
102
RTVSPropertyOp11
 70
     1
102
RTVSPropertyOp12
 70
     1
102
RTVSPropertyOp13
 70
     1
102
RTVSPropertyOp14
 70
     1
102
RTVSPropertyOp15
 70
     1
102
RTVSPropertyOp16
 70
     1
102
RTVSPropertyOp17
 70
     1
102
RTVSPropertyOp18
 70
     1
102
RTVSPropertyOp19
 70
     1
102
RTVSPropertyOp20
 70
     1
102
RTVSPropertyOp21
 70
     1
102
RTVSPropertyOp22
 70
     1
102
RTVSPropertyOp23
 70
     1
102
RTVSPropertyOp24
 70
     1
102
RTVSPropertyOp25
 70
     1
102
RTVSPropertyOp26
 70
     1
102
RTVSPropertyOp27
 70
     1
102
RTVSPropertyOp28
 70
     1
102
RTVSPropertyOp29
 70
     1
102
RTVSPropertyOp30
 70
     1
102
RTVSPropertyOp31
 70
     1
102
RTVSPropertyOp32
 70
     1
  0
ENDSEC
  0
EOF
