  0
SECTION
  2
HEADER
  9
$ACADVER
  1
AC1009
  9
$INSBASE
 10
268.43400214410849
 20
176.78614296069
 30
0.0
  9
$EXTMIN
 10
23.57430521337028
 20
-357.33550038033371
 30
-0.0015258207003583
  9
$EXTMAX
 10
247.1016555624021
 20
-97.880538686426476
 30
0.0000000349246037
  9
$LIMMIN
 10
0.0
 20
0.0
  9
$LIMMAX
 10
554.0
 20
395.0
  9
$ORTHOMODE
 70
     1
  9
$REGENMODE
 70
     1
  9
$FILLMODE
 70
     1
  9
$QTEXTMODE
 70
     0
  9
$MIRRTEXT
 70
     1
  9
$DRAGMODE
 70
     2
  9
$LTSCALE
 40
2.0
  9
$OSMODE
 70
    37
  9
$ATTMODE
 70
     1
  9
$TEXTSIZE
 40
2.0
  9
$TRACEWID
 40
0.2
  9
$TEXTSTYLE
  7
KANJI
  9
$CLAYER
  8
1外形線
  9
$CELTYPE
  6
BYLAYER
  9
$CECOLOR
 62
   256
  9
$DIMSCALE
 40
1.0
  9
$DIMASZ
 40
1.0
  9
$DIMEXO
 40
1.0
  9
$DIMDLI
 40
6.0
  9
$DIMRND
 40
0.0
  9
$DIMDLE
 40
0.0
  9
$DIMEXE
 40
1.0
  9
$DIMTP
 40
0.0
  9
$DIMTM
 40
0.0
  9
$DIMTXT
 40
2.5
  9
$DIMCEN
 40
0.0
  9
$DIMTSZ
 40
0.0
  9
$DIMTOL
 70
     0
  9
$DIMLIM
 70
     0
  9
$DIMTIH
 70
     0
  9
$DIMTOH
 70
     0
  9
$DIMSE1
 70
     0
  9
$DIMSE2
 70
     0
  9
$DIMTAD
 70
     1
  9
$DIMZIN
 70
     8
  9
$DIMBLK
  1

  9
$DIMASO
 70
     1
  9
$DIMSHO
 70
     1
  9
$DIMPOST
  1

  9
$DIMAPOST
  1

  9
$DIMALT
 70
     0
  9
$DIMALTD
 70
     2
  9
$DIMALTF
 40
25.399999999999999
  9
$DIMLFAC
 40
1.0
  9
$DIMTOFL
 70
     1
  9
$DIMTVP
 40
0.0
  9
$DIMTIX
 70
     0
  9
$DIMSOXD
 70
     0
  9
$DIMSAH
 70
     1
  9
$DIMBLK1
  1
1
  9
$DIMBLK2
  1
1
  9
$DIMSTYLE
  2
STANDARD
  9
$DIMCLRD
 70
     0
  9
$DIMCLRE
 70
     0
  9
$DIMCLRT
 70
     0
  9
$DIMTFAC
 40
1.0
  9
$DIMGAP
 40
0.5
  9
$LUNITS
 70
     2
  9
$LUPREC
 70
     2
  9
$SKETCHINC
 40
0.1
  9
$FILLETRAD
 40
0.0
  9
$AUNITS
 70
     0
  9
$AUPREC
 70
     0
  9
$MENU
  1
tcad-s
  9
$ELEVATION
 40
0.0
  9
$PELEVATION
 40
0.0
  9
$THICKNESS
 40
0.0
  9
$LIMCHECK
 70
     0
  9
$BLIPMODE
 70
     0
  9
$CHAMFERA
 40
0.0
  9
$CHAMFERB
 40
0.0
  9
$SKPOLY
 70
     0
  9
$TDCREATE
 40
2452436.6642274531
  9
$TDUPDATE
 40
2454447.484362511
  9
$TDINDWG
 40
0.2318953356
  9
$TDUSRTIMER
 40
0.2318942593
  9
$USRTIMER
 70
     1
  9
$ANGBASE
 50
0.0
  9
$ANGDIR
 70
     0
  9
$PDMODE
 70
     0
  9
$PDSIZE
 40
2.399999999999999
  9
$PLINEWID
 40
0.0
  9
$COORDS
 70
     0
  9
$SPLFRAME
 70
     0
  9
$SPLINETYPE
 70
     6
  9
$SPLINESEGS
 70
     8
  9
$ATTDIA
 70
     1
  9
$ATTREQ
 70
     1
  9
$HANDLING
 70
     1
  9
$HANDSEED
  5
119F6
  9
$SURFTAB1
 70
     6
  9
$SURFTAB2
 70
     6
  9
$SURFTYPE
 70
     6
  9
$SURFU
 70
     6
  9
$SURFV
 70
     6
  9
$UCSNAME
  2

  9
$UCSORG
 10
0.0
 20
0.0
 30
0.0
  9
$UCSXDIR
 10
1.0
 20
0.0
 30
0.0
  9
$UCSYDIR
 10
0.0
 20
1.0
 30
0.0
  9
$PUCSNAME
  2

  9
$PUCSORG
 10
0.0
 20
0.0
 30
0.0
  9
$PUCSXDIR
 10
1.0
 20
0.0
 30
0.0
  9
$PUCSYDIR
 10
0.0
 20
1.0
 30
0.0
  9
$USERI1
 70
     0
  9
$USERI2
 70
     0
  9
$USERI3
 70
     0
  9
$USERI4
 70
     0
  9
$USERI5
 70
     0
  9
$USERR1
 40
0.0
  9
$USERR2
 40
0.0
  9
$USERR3
 40
0.0
  9
$USERR4
 40
0.0
  9
$USERR5
 40
0.0
  9
$WORLDVIEW
 70
     1
  9
$SHADEDGE
 70
     3
  9
$SHADEDIF
 70
    70
  9
$TILEMODE
 70
     1
  9
$MAXACTVP
 70
    16
  9
$PLIMCHECK
 70
     0
  9
$PEXTMIN
 10
1.0000000000000000E+020
 20
1.0000000000000000E+020
 30
1.0000000000000000E+020
  9
$PEXTMAX
 10
-1.0000000000000000E+020
 20
-1.0000000000000000E+020
 30
-1.0000000000000000E+020
  9
$PLIMMIN
 10
0.0
 20
0.0
  9
$PLIMMAX
 10
12.0
 20
9.0
  9
$UNITMODE
 70
     0
  9
$VISRETAIN
 70
     0
  9
$PLINEGEN
 70
     0
  9
$PSLTSCALE
 70
     0
  0
ENDSEC
  0
SECTION
  2
TABLES
  0
TABLE
  2
VPORT
 70
     2
  0
VPORT
  2
*ACTIVE
 70
     0
 10
0.0
 20
0.0
 11
1.0
 21
1.0
 12
-89.970483343652305
 22
-395.82879013141201
 13
0.0
 23
0.0
 14
1.0
 24
1.0
 15
0.0
 25
0.0
 16
0.0
 26
0.0
 36
1.0
 17
225.3084637315385
 27
168.22077059803181
 37
0.0
 40
326.96260458029752
 41
1.676190476190476
 42
50.0
 43
0.0
 44
0.0
 50
0.0
 51
0.0
 71
     0
 72
  1000
 73
     1
 74
     1
 75
     0
 76
     0
 77
     0
 78
     1
  0
ENDTAB
  0
TABLE
  2
LTYPE
 70
    21
  0
LTYPE
  2
CONTINUOUS
 70
     0
  3
Solid line
 72
    65
 73
     0
 40
0.0
  0
LTYPE
  2
CENTER
 70
     0
  3
____ _ ____ _ ____ _ ____ _ ____ _ ____ _ ____ 
 72
    65
 73
     4
 40
2.0
 49
1.25
 49
-0.25
 49
0.25
 49
-0.25
  0
ENDTAB
  0
TABLE
  2
LAYER
 70
     6
  0
LAYER
  2
0
 70
     0
 62
     7
  6
CONTINUOUS
  0
LAYER
  2
1外形線
 70
     0
 62
     3
  6
CONTINUOUS
  0
LAYER
  2
2寸法線
 70
     0
 62
     2
  6
CONTINUOUS
  0
LAYER
  2
4太線
 70
     0
 62
     6
  6
CONTINUOUS
  0
LAYER
  2
DEFPOINTS
 70
     0
 62
     7
  6
CONTINUOUS
  0
ENDTAB
  0
TABLE
  2
STYLE
 70
     8
  0
STYLE
  2
STANDARD
 70
     0
 40
0.0
 41
1.0
 50
0.0
 71
     0
 42
0.2
  3
txt
  4

  0
STYLE
  2
KANJI
 70
     0
 40
0.0
 41
1.0
 50
0.0
 71
     0
 42
2.0
  3
simplex
  4
bigfont
  0
ENDTAB
  0
TABLE
  2
VIEW
 70
     0
  0
ENDTAB
  0
TABLE
  2
UCS
 70
     0
  0
ENDTAB
  0
TABLE
  2
APPID
 70
    13
  0
APPID
  2
ACAD
 70
     0
  0
APPID
  2
MCAD_NO_VIS
 70
     0
  0
APPID
  2
ACAD_TEMP_GRAPHIC
 70
     0
  0
APPID
  2
AD_DRAW
 70
     0
  0
APPID
  2
ACATTRIBSERVICES
 70
     0
  0
APPID
  2
GENIUS_GENDIM_13
 70
     0
  0
APPID
  2
GENIUS_GENDTOL_13
 70
     0
  0
APPID
  2
GENIUS_GE3DTOL_13
 70
     0
  0
APPID
  2
ASURF_PCURVE_APPNAME
 70
     0
  0
APPID
  2
DESIGNERASSEMBLIES
 70
     0
  0
APPID
  2
ACADM_DIM_EDIT
 70
     0
  0
APPID
  2
AMDT_DM_ADJ
 70
     0
  0
APPID
  2
AMG_3D2D_5_0
 70
     0
  0
ENDTAB
  0
TABLE
  2
DIMSTYLE
 70
     9
  0
DIMSTYLE
  2
STANDARD
 70
     0
  3

  4

  5

  6

  7

 40
1.0
 41
1.0
 42
1.0
 43
6.0
 44
1.0
 45
0.0
 46
0.0
 47
0.0
 48
0.0
140
2.5
141
0.0
142
0.0
143
25.399999999999999
144
1.0
145
0.0
146
1.0
147
0.5
 71
     0
 72
     0
 73
     0
 74
     0
 75
     0
 76
     0
 77
     1
 78
     8
170
     0
171
     2
172
     1
173
     1
174
     0
175
     0
176
     0
177
     0
178
     0
  0
DIMSTYLE
  2
AM_ISO
 70
     0
  3

  4
"
  5

  6

  7

 40
1.0
 41
2.5
 42
1.0
 43
10.0
 44
1.0
 45
0.0
 46
0.0
 47
0.1
 48
0.1
140
3.5
141
0.0
142
0.0
143
0.0393701
144
1.0
145
0.0
146
0.71
147
1.5
 71
     0
 72
     0
 73
     0
 74
     0
 75
     0
 76
     0
 77
     1
 78
     8
170
     0
171
     2
172
     1
173
     0
174
     0
175
     0
176
   256
177
   256
178
     2
  0
ENDTAB
  0
ENDSEC
  0
SECTION
  2
BLOCKS
  0
BLOCK
  8
0
  2
$MODEL_SPACE
 70
     0
 10
0.0
 20
0.0
 30
0.0
  3
$MODEL_SPACE
  1

  0
ENDBLK
  5
1192D
  8
0
  0
BLOCK
 67
     1
  8
0
  2
$PAPER_SPACE
 70
     0
 10
0.0
 20
0.0
 30
0.0
  3
$PAPER_SPACE
  1

  0
ENDBLK
  5
11929
 67
     1
  8
0
  0
BLOCK
  8
0
  2
1
 70
     0
 10
0.0
 20
0.0
 30
0.0
  3
1
  1

  0
SOLID
  5
C7B5
  8
0
  6
BYBLOCK
 62
     0
 10
-1.81111092429205
 20
0.4852857095671653
 30
0.0
 11
-1.81111092429205
 21
-0.4852857095673643
 31
0.0
 12
0.0
 22
0.0
 32
0.0
 13
0.0
 23
0.0
 33
0.0
  0
ENDBLK
  5
C7B6
  8
0
  0
BLOCK
  8
0
  2
_DOT
 70
     0
 10
0.0
 20
0.0
 30
0.0
  3
_DOT
  1

  0
POLYLINE
  5
D6D2
  8
0
  6
BYBLOCK
 62
     0
 66
     1
 10
0.0
 20
0.0
 30
0.0
 70
     1
 40
0.5
 41
0.5
  0
VERTEX
  5
119EF
  8
0
  6
BYBLOCK
 62
     0
 10
-0.25
 20
0.0
 30
0.0
 42
1.0
  0
VERTEX
  5
119F0
  8
0
  6
BYBLOCK
 62
     0
 10
0.25
 20
0.0
 30
0.0
 42
1.0
  0
SEQEND
  5
119F1
  8
0
  6
BYBLOCK
 62
     0
  0
LINE
  5
D6D6
  8
0
  6
BYBLOCK
 62
     0
 10
-0.5
 20
0.0
 30
0.0
 11
-1.0
 21
0.0
 31
0.0
  0
ENDBLK
  5
D6D8
  8
0
  0
ENDSEC
  0
SECTION
  2
ENTITIES
  0
LINE
  5
FD3F
  8
1外形線
 10
127.6285213630799
 20
-157.55817834674909
 30
0.0
 11
133.2038571548548
 21
-138.9737257074965
 31
0.0
  0
LINE
  5
FD41
  8
1外形線
 10
64.200930094417799
 20
-157.55817834674909
 30
0.0
 11
58.625594302642867
 21
-138.9737257074965
 31
0.0
  0
LINE
  5
FD4B
  8
1外形線
 10
101.414725728749
 20
-317.95033461534712
 30
0.0
 11
133.41472572874881
 21
-317.95033461535081
 31
0.0
  0
LINE
  5
FD4F
  8
1外形線
 10
87.914725728748209
 20
-196.5632345092815
 30
0.0
 11
103.9147257287495
 21
-196.5632345092815
 31
0.0
  0
LINE
  5
FD50
  8
1外形線
 10
82.684047927771886
 20
-192.5632345092815
 30
0.0
 11
109.1454035297255
 21
-192.5632345092815
 31
0.0
  0
LINE
  5
FD51
  8
1外形線
 10
87.914725728748209
 20
-195.0632345092817
 30
0.0
 11
103.9147257287495
 21
-195.0632345092817
 31
0.0
  0
LINE
  5
FD52
  8
1外形線
 10
65.158756379639044
 20
-158.27083046118281
 30
0.0
 11
126.6706950778587
 21
-158.27083046118281
 31
0.0
  0
LINE
  5
FD53
  8
1外形線
 10
65.158756379639044
 20
-289.95033461534592
 30
0.0
 11
126.6706950778587
 21
-289.95033461534592
 31
0.0
  0
LINE
  5
FD55
  8
1外形線
 10
64.200930094417799
 20
-290.66298672977962
 30
0.0
 11
58.625594302642867
 21
-309.24743936903201
 31
0.0
  0
LINE
  5
FD56
  8
1外形線
 10
58.41472572874909
 20
-317.950334615342
 30
0.0
 11
90.414725728748934
 21
-317.95033461534558
 31
0.0
  0
ARC
  5
FD58
  8
1外形線
 10
63.414725728748628
 20
-310.68417879686382
 30
0.0
 40
5.0
 50
163.30075576600859
 51
180.00000000000139
  0
LINE
  5
FD59
  8
1外形線
 10
58.414725728749069
 20
-328.95033461534308
 30
0.0
 11
58.414725728748628
 21
-310.68417879686382
 31
0.0
  0
LINE
  5
FD5A
  8
1外形線
 10
60.41472572874909
 20
-329.9503346153457
 30
0.0
 11
60.414725728748849
 21
-317.95033461534263
 31
0.0
  0
LINE
  5
FD5C
  8
1外形線
 10
60.41472572874909
 20
-329.9503346153457
 30
0.0
 11
59.414725728751939
 21
-329.95033461534609
 31
0.0
  0
LINE
  5
FD5D
  8
1外形線
 10
75.414725728748849
 20
-289.95033461534592
 30
0.0
 11
75.414725728748849
 21
-312.95033461534319
 31
0.0
  0
LINE
  5
FD61
  8
1外形線
 10
96.91472572874909
 20
-322.95033461534149
 30
0.0
 11
98.914725728748664
 21
-325.9503346153416
 31
0.0
  0
LINE
  5
FD62
  8
1外形線
 10
94.914725728749104
 20
-322.95033461534149
 30
0.0
 11
92.91472572874909
 21
-325.9503346153416
 31
0.0
  0
LINE
  5
FD63
  8
1外形線
  6
CONTINUOUS
 10
100.414725728749
 20
-325.950334615342
 30
0.0
 11
100.414725728749
 21
-318.95033461534712
 31
0.0
  0
LINE
  5
FD64
  8
1外形線
  6
CONTINUOUS
 10
91.414725728748664
 20
-325.950334615342
 30
0.0
 11
91.414725728748877
 21
-318.95033461534558
 31
0.0
  0
LINE
  5
FD65
  8
1外形線
 10
91.414725728748564
 20
-325.95033461534217
 30
0.0
 11
92.914725728749559
 21
-325.9503346153416
 31
0.0
  0
LINE
  5
FD66
  8
1外形線
 10
100.414725728749
 20
-325.95033461534217
 30
0.0
 11
98.914725728748664
 21
-325.9503346153416
 31
0.0
  0
LINE
  5
FD67
  8
1外形線
 10
92.91472572874909
 20
-317.9503346153416
 30
0.0
 11
94.789725728749076
 21
-317.9503346153416
 31
0.0
  0
LINE
  5
FD68
  8
1外形線
 10
92.91472572874909
 20
-317.95033461534632
 30
0.0
 11
94.914725728749104
 21
-317.95033461534632
 31
0.0
  0
LINE
  5
FD69
  8
1外形線
 10
92.91472572874909
 20
-321.9503346153416
 30
0.0
 11
94.914725728749104
 21
-321.9503346153416
 31
0.0
  0
ARC
  5
FD6A
  8
1外形線
 10
90.414725728748834
 20
-318.95033461534558
 30
0.0
 40
1.0
 50
359.99999999999841
 51
89.999999999993307
  0
LINE
  5
FD6B
  8
1外形線
  6
CONTINUOUS
 10
92.91472572874909
 20
-321.9503346153416
 30
0.0
 11
92.91472572874909
 21
-317.9503346153416
 31
0.0
  0
LINE
  5
FD6C
  8
1外形線
 10
97.03972572874892
 20
-317.95033461534661
 30
0.0
 11
98.914725728748664
 21
-317.95033461534712
 31
0.0
  0
LINE
  5
FD6D
  8
1外形線
 10
96.91472572874909
 20
-317.950334615342
 30
0.0
 11
98.914725728748664
 21
-317.95033461534217
 31
0.0
  0
LINE
  5
FD6E
  8
1外形線
 10
98.914725728748664
 20
-321.9503346153416
 30
0.0
 11
96.91472572874909
 21
-321.9503346153416
 31
0.0
  0
LINE
  5
FD71
  8
1外形線
  6
CENTER
 10
94.914725728749104
 20
-317.95033461534632
 30
0.0
 11
94.914725728749104
 21
-322.95033461534149
 31
0.0
  0
LINE
  5
FD72
  8
1外形線
  6
CENTER
 10
96.91472572874909
 20
-317.950334615342
 30
0.0
 11
96.91472572874909
 21
-322.95033461534149
 31
0.0
  0
LINE
  5
FD73
  8
1外形線
 10
94.914725728749104
 20
-321.95033461534132
 30
0.0
 11
96.91472572874909
 21
-321.95033461534081
 31
0.0
  0
ARC
  5
FD74
  8
1外形線
 10
101.414725728749
 20
-318.95033461534712
 30
0.0
 40
1.0
 50
89.999999999993307
 51
180.0
  0
LINE
  5
FD75
  8
1外形線
  6
CONTINUOUS
 10
98.914725728748664
 20
-321.9503346153416
 30
0.0
 11
98.914725728748664
 21
-317.9503346153416
 31
0.0
  0
ARC
  5
FD77
  8
1外形線
 10
65.158756379639044
 20
-290.95033461534598
 30
0.0
 40
1.0
 50
89.999999999999915
 51
163.30075576600859
  0
ARC
  5
FD80
  8
1外形線
 10
87.914725728748209
 20
-218.5632345092817
 30
0.0
 40
22.0
 50
90.0
 51
180.0
  0
ARC
  5
FD81
  8
1外形線
 10
87.914725728748209
 20
-218.5632345092817
 30
0.0
 40
23.5
 50
90.0
 51
180.0
  0
LINE
  5
FD82
  8
1外形線
 10
58.414725728748849
 20
-211.56323450928181
 30
0.0
 11
58.414725728748849
 21
-232.56323450928181
 31
0.0
  0
ARC
  5
FD83
  8
1外形線
 10
80.414725728748849
 20
-232.56323450928181
 30
0.0
 40
22.0
 50
179.9999999999998
 51
253.3984504009799
  0
ARC
  5
FD8D
  8
1外形線
 10
84.914725728748621
 20
-235.56323450928181
 30
0.0
 40
19.0
 50
180.0
 51
239.99999999999989
  0
ARC
  5
FD8E
  8
1外形線
 10
84.914725728748621
 20
-235.56323450928181
 30
0.0
 40
20.5
 50
180.0
 51
241.0574624807652
  0
ARC
  5
FD8F
  8
1外形線
 10
74.414725728748849
 20
-252.6878463067799
 30
0.0
 40
1.0
 50
253.3984504009766
 51
0.000000000000007
  0
LINE
  5
FD90
  8
1外形線
 10
75.414725728748849
 20
-252.6878463067799
 30
0.0
 11
75.414725728748849
 21
-252.0177171811861
 31
0.0
  0
LINE
  5
FD9C
  8
1外形線
 10
65.914725728748181
 20
-235.56323450928181
 30
0.0
 11
65.914725728748181
 21
-218.5632345092817
 31
0.0
  0
LINE
  5
FD9D
  8
1外形線
 10
64.414725728748181
 20
-235.56323450928181
 30
0.0
 11
64.414725728748181
 21
-218.5632345092817
 31
0.0
  0
ARC
  5
FD9E
  8
1外形線
 10
82.68404792777207
 20
-217.56323450928181
 30
0.0
 40
25.0
 50
90.0
 51
166.11345963737099
  0
LINE
  5
FD9F
  8
1外形線
 10
96.914725728748863
 20
-198.0632345092815
 30
0.0
 11
96.914725728748863
 21
-196.5632345092815
 31
0.0
  0
LINE
  5
FDA0
  8
1外形線
 10
94.914725728748792
 20
-198.0632345092815
 30
0.0
 11
94.914725728748792
 21
-196.5632345092815
 31
0.0
  0
LINE
  5
FDA1
  8
1外形線
 10
94.914725728748792
 20
-198.0632345092815
 30
0.0
 11
96.914725728748863
 21
-198.0632345092815
 31
0.0
  0
ARC
  5
FDA2
  8
1外形線
 10
65.158756379639044
 20
-157.27083046118281
 30
0.0
 40
1.0
 50
196.69924423399129
 51
270.0
  0
ARC
  5
FDB3
  8
1外形線
 10
128.41472572874909
 20
-310.68417879686382
 30
0.0
 40
5.0
 50
359.99999999999841
 51
16.699244233991369
  0
LINE
  5
FDB4
  8
1外形線
 10
116.41472572874881
 20
-312.95033461534939
 30
0.0
 11
116.41472572874881
 21
-289.95033461534592
 31
0.0
  0
LINE
  5
FDB5
  8
1外形線
 10
133.41472572874849
 20
-328.95033461534621
 30
0.0
 11
133.414725728749
 21
-310.68417879686382
 31
0.0
  0
LINE
  5
FDB6
  8
1外形線
 10
131.41472572874849
 20
-329.9503346153457
 30
0.0
 11
131.41472572874881
 21
-317.95033461535002
 31
0.0
  0
LINE
  5
FDB7
  8
1外形線
 10
131.41472572874849
 20
-329.9503346153457
 30
0.0
 11
132.41472572874849
 21
-329.95033461534632
 31
0.0
  0
LINE
  5
FDB9
  8
1外形線
 10
127.6285213630799
 20
-290.66298672977962
 30
0.0
 11
133.2038571548548
 21
-309.24743936903201
 31
0.0
  0
ARC
  5
FDBA
  8
1外形線
 10
126.6706950778587
 20
-290.95033461534598
 30
0.0
 40
1.0
 50
16.699244233991429
 51
90.000000000000114
  0
LINE
  5
FDE4
  8
4太線
 62
     3
 10
179.9847463253831
 20
-194.95373885110541
 30
0.0
 11
198.79989612851921
 21
-192.6018451257132
 31
0.0
  0
LINE
  5
FDE5
  8
4太線
 62
     3
 10
179.10878105997239
 20
-253.6878463067797
 30
0.0
 11
202.1087810599725
 21
-253.68784630677931
 31
0.0
  0
LINE
  5
FDE8
  8
4太線
 62
     3
 10
179.10878105997239
 20
-195.94601672781911
 30
0.0
 11
179.1087810599725
 21
-253.6878463067801
 31
0.0
  0
ARC
  5
FDEA
  8
1外形線
 10
103.9147257287495
 20
-218.5632345092817
 30
0.0
 40
22.0
 50
0.0
 51
90.0
  0
ARC
  5
FDEB
  8
1外形線
 10
103.9147257287495
 20
-218.5632345092817
 30
0.0
 40
23.5
 50
0.0
 51
90.0
  0
LINE
  5
FDED
  8
1外形線
 10
133.41472572874881
 20
-211.56323450928181
 30
0.0
 11
133.41472572874881
 21
-232.56323450928181
 31
0.0
  0
ARC
  5
FDF0
  8
1外形線
 10
106.914725728749
 20
-235.56323450928181
 30
0.0
 40
19.0
 50
299.99999999999972
 51
0.0
  0
ARC
  5
FDF1
  8
1外形線
 10
106.914725728749
 20
-235.56323450928181
 30
0.0
 40
20.5
 50
298.9425375192348
 51
0.0
  0
ARC
  5
FDF2
  8
1外形線
 10
111.41472572874871
 20
-232.56323450928181
 30
0.0
 40
22.0
 50
286.6015495990203
 51
0.0000000000000579
  0
ARC
  5
FDF5
  8
1外形線
 10
117.41472572874881
 20
-252.6878463067799
 30
0.0
 40
1.0
 50
180.0
 51
286.6015495990232
  0
LINE
  5
FDF6
  8
1外形線
 10
116.41472572874881
 20
-252.6878463067799
 30
0.0
 11
116.41472572874881
 21
-252.0177171811861
 31
0.0
  0
LINE
  5
FE06
  8
1外形線
 10
125.9147257287495
 20
-235.56323450928181
 30
0.0
 11
125.9147257287495
 21
-218.5632345092817
 31
0.0
  0
LINE
  5
FE07
  8
1外形線
 10
127.4147257287495
 20
-235.56323450928181
 30
0.0
 11
127.4147257287495
 21
-218.5632345092817
 31
0.0
  0
ARC
  5
FE13
  8
1外形線
 10
109.1454035297255
 20
-217.56323450928181
 30
0.0
 40
25.0
 50
13.88654036262899
 51
90.0
  0
ARC
  5
FE16
  8
1外形線
 10
126.6706950778587
 20
-157.27083046118281
 30
0.0
 40
1.0
 50
269.99999999999977
 51
343.30075576600859
  0
ARC
  5
FE18
  8
4太線
 62
     3
 10
180.10878105997239
 20
-195.94601672781911
 30
0.0
 40
1.0
 50
97.12501634890269
 51
180.0
  0
LINE
  5
FE1B
  8
4太線
 62
     3
 10
199.10878105997239
 20
-253.68784630677951
 30
0.0
 11
199.10878105997239
 21
-192.572933985323
 31
0.0
  0
LINE
  5
FE1C
  8
4太線
 62
     3
 10
219.1087810599729
 20
-215.06323450928181
 30
0.0
 11
219.1087810599729
 21
-229.06323450928161
 31
0.0
  0
LINE
  5
FE1E
  8
4太線
 62
     3
 10
207.1087810599725
 20
-233.0632345092817
 30
0.0
 11
207.1087810599725
 21
-248.68784630677951
 31
0.0
  0
LINE
  5
FE21
  8
4太線
 62
     3
 10
209.1087810599725
 20
-231.06323450928161
 30
0.0
 11
217.1087810599729
 21
-231.0632345092817
 31
0.0
  0
ARC
  5
FE22
  8
4太線
 62
     3
 10
209.1087810599725
 20
-233.0632345092817
 30
0.0
 40
2.0
 50
89.999999999999204
 51
180.00000000000011
  0
ARC
  5
FE23
  8
4太線
 62
     3
 10
217.1087810599729
 20
-229.06323450928161
 30
0.0
 40
2.0
 50
270.0
 51
0.000000000000007
  0
LINE
  5
FE2E
  8
4太線
 62
     3
 10
199.4200698014653
 20
-192.5632345092815
 30
0.0
 11
215.10878105996821
 21
-192.5632345092815
 31
0.0
  0
LINE
  5
FE2F
  8
4太線
 62
     3
 10
209.1087810599725
 20
-213.06323450928181
 30
0.0
 11
217.1087810599729
 21
-213.06323450928181
 31
0.0
  0
LINE
  5
FE31
  8
4太線
 62
     3
 10
207.1087810599725
 20
-194.06323450928261
 30
0.0
 11
215.10878105996821
 21
-194.06323450928289
 31
0.0
  0
LINE
  5
FE32
  8
4太線
 62
     3
 10
207.1087810599725
 20
-192.5632345092815
 30
0.0
 11
207.1087810599725
 21
-211.06323450928181
 31
0.0
  0
ARC
  5
FE33
  8
4太線
 62
     3
 10
209.1087810599725
 20
-211.06323450928181
 30
0.0
 40
2.0
 50
180.00000000000011
 51
270.0
  0
ARC
  5
FE34
  8
4太線
 62
     3
 10
199.4200698014653
 20
-197.5632345092815
 30
0.0
 40
5.0
 50
90.0
 51
97.125016348902435
  0
LINE
  5
FE35
  8
1外形線
 10
211.1087810599677
 20
-195.763234509282
 30
0.0
 11
211.1087810599677
 21
-198.0632345092813
 31
0.0
  0
LINE
  5
FE36
  8
1外形線
 10
210.6087810599677
 20
-198.0632345092815
 30
0.0
 11
208.1087810599675
 21
-196.5632345092815
 31
0.0
  0
LINE
  5
FE37
  8
4太線
 62
     3
 10
208.1087810599675
 20
-196.5632345092815
 30
0.0
 11
207.1087810599725
 21
-196.5632345092815
 31
0.0
  0
LINE
  5
FE38
  8
4太線
 62
     3
 10
211.1087810599677
 20
-198.0632345092815
 30
0.0
 11
210.60878105996741
 21
-198.06323450928201
 31
0.0
  0
LINE
  5
FE39
  8
4太線
 62
     3
 10
211.1087810599677
 20
-195.763234509282
 30
0.0
 11
207.1087810599725
 21
-195.763234509282
 31
0.0
  0
ARC
  5
FE3B
  8
4太線
 62
     3
 10
217.1087810599729
 20
-215.06323450928181
 30
0.0
 40
2.0
 50
0.000000000000007
 51
90.0
  0
LINE
  5
FE3C
  8
1外形線
 10
215.10878105996821
 20
-192.5632345092815
 30
0.0
 11
215.10878105996841
 21
-194.06323450928289
 31
0.0
  0
LINE
  5
FE4B
  8
1外形線
 10
101.4147257287492
 20
-130.2708304611813
 30
0.0
 11
133.41472572874881
 21
-130.27083046117741
 31
0.0
  0
LINE
  5
FE4C
  8
1外形線
 10
58.468871634939099
 20
-138.27083046118241
 30
0.0
 11
133.36057982255841
 21
-138.27083046118281
 31
0.0
  0
LINE
  5
FE51
  8
1外形線
 10
58.41472572874909
 20
-130.2708304611867
 30
0.0
 11
90.414725728749005
 21
-130.27083046118281
 31
0.0
  0
LINE
  5
FE52
  8
1外形線
 10
58.414725728749069
 20
-119.2708304611828
 30
0.0
 11
58.414725728748628
 21
-137.53698627966489
 31
0.0
  0
LINE
  5
FE53
  8
1外形線
 10
60.414725728749019
 20
-118.27083046118319
 30
0.0
 11
60.414725728748799
 21
-130.2708304611867
 31
0.0
  0
ARC
  5
FE54
  8
1外形線
 10
63.414725728748628
 20
-137.53698627966489
 30
0.0
 40
5.0
 50
179.99999999999841
 51
196.69924423399129
  0
LINE
  5
FE55
  8
1外形線
 10
60.414725728749019
 20
-118.27083046118319
 30
0.0
 11
59.41472572874904
 21
-118.2708304611828
 31
0.0
  0
LINE
  5
FE57
  8
1外形線
 10
94.914725728748948
 20
-125.2708304611821
 30
0.0
 11
92.914725728749204
 21
-122.2708304611822
 31
0.0
  0
LINE
  5
FE58
  8
1外形線
 10
92.914725728749204
 20
-126.2708304611821
 30
0.0
 11
94.914725728748948
 21
-126.2708304611821
 31
0.0
  0
LINE
  5
FE59
  8
1外形線
 10
92.914725728749204
 20
-130.27083046118241
 30
0.0
 11
98.914725728748735
 21
-130.2708304611815
 31
0.0
  0
LINE
  5
FE5A
  8
1外形線
  6
CONTINUOUS
 10
92.914725728749204
 20
-126.2708304611821
 30
0.0
 11
92.914725728749204
 21
-130.2708304611821
 31
0.0
  0
LINE
  5
FE5B
  8
1外形線
  6
CONTINUOUS
 10
91.414725728748735
 20
-122.2708304611817
 30
0.0
 11
91.414725728748877
 21
-129.27083046118281
 31
0.0
  0
ARC
  5
FE5C
  8
1外形線
 10
90.414725728748834
 20
-129.27083046118281
 30
0.0
 40
1.0
 50
270.00000000000711
 51
0.0000000000008142
  0
LINE
  5
FE5D
  8
1外形線
 10
91.414725728748735
 20
-122.2708304611815
 30
0.0
 11
92.914725728749403
 21
-122.2708304611822
 31
0.0
  0
LINE
  5
FE5E
  8
1外形線
  6
CONTINUOUS
 10
98.914725728748735
 20
-126.2708304611821
 30
0.0
 11
98.914725728748735
 21
-130.2708304611821
 31
0.0
  0
LINE
  5
FE61
  8
1外形線
  6
CONTINUOUS
 10
100.4147257287492
 20
-122.2708304611817
 30
0.0
 11
100.414725728749
 21
-129.2708304611813
 31
0.0
  0
ARC
  5
FE62
  8
1外形線
 10
101.414725728749
 20
-129.2708304611813
 30
0.0
 40
1.0
 50
179.9999999999992
 51
270.00000000000711
  0
LINE
  5
FE63
  8
1外形線
 10
96.914725728749005
 20
-125.2708304611821
 30
0.0
 11
98.914725728748735
 21
-122.2708304611822
 31
0.0
  0
LINE
  5
FE64
  8
1外形線
 10
98.914725728748735
 20
-126.2708304611821
 30
0.0
 11
96.914725728749005
 21
-126.2708304611821
 31
0.0
  0
LINE
  5
FE65
  8
1外形線
  6
CENTER
 10
94.914725728748948
 20
-126.2708304611821
 30
0.0
 11
94.914725728748948
 21
-125.2708304611821
 31
0.0
  0
LINE
  5
FE66
  8
1外形線
  6
CENTER
 10
96.914725728749005
 20
-126.2708304611821
 30
0.0
 11
96.914725728749005
 21
-125.2708304611821
 31
0.0
  0
LINE
  5
FE68
  8
1外形線
 10
100.4147257287492
 20
-122.2708304611815
 30
0.0
 11
98.914725728748508
 21
-122.2708304611822
 31
0.0
  0
LINE
  5
FE7D
  8
1外形線
 10
133.41472572874849
 20
-119.2708304611828
 30
0.0
 11
133.414725728749
 21
-137.53698627966489
 31
0.0
  0
LINE
  5
FE7E
  8
1外形線
 10
131.41472572874849
 20
-118.270830461183
 30
0.0
 11
131.41472572874881
 21
-130.27083046117789
 31
0.0
  0
ARC
  5
FE7F
  8
1外形線
 10
128.41472572874909
 20
-137.53698627966489
 30
0.0
 40
5.0
 50
343.30075576600859
 51
0.0000000000014758
  0
LINE
  5
FE82
  8
1外形線
 10
131.41472572874849
 20
-118.270830461183
 30
0.0
 11
132.41472572874849
 21
-118.2708304611827
 31
0.0
  0
ARC
  5
10939
  8
4太線
 62
     3
 10
202.10878105997239
 20
-248.68784630677951
 30
0.0
 40
5.0
 50
270.0000000000008
 51
0.0
  0
LINE
  5
1096D
  8
1外形線
 10
58.414725728749069
 20
-119.2708304611827
 30
0.0
 11
59.41472572874904
 21
-118.2708304611828
 31
0.0
  0
LINE
  5
1096E
  8
1外形線
 10
133.41472572874849
 20
-119.2708304611828
 30
0.0
 11
132.41472572874849
 21
-118.2708304611827
 31
0.0
  0
ARC
  5
10971
  8
1外形線
 10
70.414725728748849
 20
-312.95033461534319
 30
0.0
 40
5.0
 50
269.99999999999392
 51
0.0
  0
ARC
  5
10972
  8
1外形線
 10
121.41472572874871
 20
-312.95033461534939
 30
0.0
 40
5.0
 50
180.0
 51
269.99999999999352
  0
LINE
  5
10973
  8
1外形線
 10
132.41472572874841
 20
-329.95033461534632
 30
0.0
 11
133.41472572874849
 21
-328.95033461534621
 31
0.0
  0
LINE
  5
10975
  8
1外形線
 10
59.414725728749069
 20
-329.95033461534319
 30
0.0
 11
58.414725728749069
 21
-328.95033461534308
 31
0.0
  0
LINE
  5
1098C
  8
1外形線
 10
58.914725728748778
 20
-317.450334615342
 30
0.0
 11
72.594175200518805
 21
-317.45033461534371
 31
0.0
  0
LINE
  5
1098D
  8
1外形線
 10
58.414725728748813
 20
-317.950334615342
 30
0.0
 11
58.91472572874882
 21
-317.45033461534217
 31
0.0
  0
LINE
  5
1098E
  8
1外形線
 10
132.91472572874881
 20
-317.45033461534217
 30
0.0
 11
119.2352762569665
 21
-317.45033461534371
 31
0.0
  0
LINE
  5
1098F
  8
1外形線
 10
133.41472572874881
 20
-317.950334615342
 30
0.0
 11
132.91472572874881
 21
-317.45033461534217
 31
0.0
  0
LINE
  5
118E9
  8
1外形線
 10
23.61438649063188
 20
-97.922731418630562
 30
0.0
 11
23.61438649063188
 21
-357.33501711998912
 31
0.0
  0
LINE
  5
118EA
  8
1外形線
 10
247.09185641535521
 20
-97.922731418630562
 30
0.0
 11
247.09185641535521
 21
-357.33501711998912
 31
0.0
  0
LINE
  5
118EB
  8
1外形線
 10
247.09185641535521
 20
-357.33501711998912
 30
0.0
 11
23.61438649063188
 21
-357.33501711998912
 31
0.0
  0
LINE
  5
118EC
  8
1外形線
 10
23.61438649063188
 20
-97.922731418630562
 30
0.0
 11
247.09185641535521
 21
-97.922731418630562
 31
0.0
  0
ENDSEC
  0
EOF
