  0
SECTION
  2
HEADER
  9
$ACADVER
  1
AC1009
  9
$INSBASE
 10
0.0
 20
0.0
 30
0.0
  9
$EXTMIN
 10
26.194530859682452
 20
17.749702681156919
 30
0.0
  9
$EXTMAX
 10
354.21719343584721
 20
857.74970268115703
 30
0.0
  9
$LIMMIN
 10
0.0
 20
0.0
  9
$LIMMAX
 10
420.0
 20
297.0
  9
$ORTHOMODE
 70
     0
  9
$REGENMODE
 70
     1
  9
$FILLMODE
 70
     1
  9
$QTEXTMODE
 70
     0
  9
$MIRRTEXT
 70
     1
  9
$DRAGMODE
 70
     2
  9
$LTSCALE
 40
1.0
  9
$OSMODE
 70
    37
  9
$ATTMODE
 70
     1
  9
$TEXTSIZE
 40
2.5
  9
$TRACEWID
 40
1.0
  9
$TEXTSTYLE
  7
STANDARD
  9
$CLAYER
  8
0
  9
$CELTYPE
  6
BYLAYER
  9
$CECOLOR
 62
   256
  9
$DIMSCALE
 40
1.0
  9
$DIMASZ
 40
2.5
  9
$DIMEXO
 40
0.625
  9
$DIMDLI
 40
3.75
  9
$DIMRND
 40
0.0
  9
$DIMDLE
 40
0.0
  9
$DIMEXE
 40
1.25
  9
$DIMTP
 40
0.0
  9
$DIMTM
 40
0.0
  9
$DIMTXT
 40
2.5
  9
$DIMCEN
 40
2.5
  9
$DIMTSZ
 40
0.0
  9
$DIMTOL
 70
     0
  9
$DIMLIM
 70
     0
  9
$DIMTIH
 70
     0
  9
$DIMTOH
 70
     0
  9
$DIMSE1
 70
     0
  9
$DIMSE2
 70
     0
  9
$DIMTAD
 70
     1
  9
$DIMZIN
 70
     8
  9
$DIMBLK
  1

  9
$DIMASO
 70
     1
  9
$DIMSHO
 70
     1
  9
$DIMPOST
  1

  9
$DIMAPOST
  1

  9
$DIMALT
 70
     0
  9
$DIMALTD
 70
     3
  9
$DIMALTF
 40
0.03937007874016
  9
$DIMLFAC
 40
1.0
  9
$DIMTOFL
 70
     1
  9
$DIMTVP
 40
0.0
  9
$DIMTIX
 70
     0
  9
$DIMSOXD
 70
     0
  9
$DIMSAH
 70
     0
  9
$DIMBLK1
  1

  9
$DIMBLK2
  1

  9
$DIMSTYLE
  2
ISO-25
  9
$DIMCLRD
 70
     0
  9
$DIMCLRE
 70
     0
  9
$DIMCLRT
 70
     0
  9
$DIMTFAC
 40
1.0
  9
$DIMGAP
 40
0.625
  9
$LUNITS
 70
     2
  9
$LUPREC
 70
     4
  9
$SKETCHINC
 40
1.0
  9
$FILLETRAD
 40
10.0
  9
$AUNITS
 70
     0
  9
$AUPREC
 70
     0
  9
$MENU
  1
.
  9
$ELEVATION
 40
0.0
  9
$PELEVATION
 40
0.0
  9
$THICKNESS
 40
0.0
  9
$LIMCHECK
 70
     0
  9
$BLIPMODE
 70
     0
  9
$CHAMFERA
 40
10.0
  9
$CHAMFERB
 40
10.0
  9
$SKPOLY
 70
     0
  9
$TDCREATE
 40
2452216.4719625232
  9
$TDUPDATE
 40
2452216.472277673
  9
$TDINDWG
 40
0.0003156134
  9
$TDUSRTIMER
 40
0.0003154977
  9
$USRTIMER
 70
     1
  9
$ANGBASE
 50
0.0
  9
$ANGDIR
 70
     0
  9
$PDMODE
 70
     0
  9
$PDSIZE
 40
0.0
  9
$PLINEWID
 40
0.0
  9
$COORDS
 70
     1
  9
$SPLFRAME
 70
     0
  9
$SPLINETYPE
 70
     6
  9
$SPLINESEGS
 70
     8
  9
$ATTDIA
 70
     0
  9
$ATTREQ
 70
     1
  9
$HANDLING
 70
-16383
  9
$HANDSEED
  5
26F
  9
$SURFTAB1
 70
     6
  9
$SURFTAB2
 70
     6
  9
$SURFTYPE
 70
     6
  9
$SURFU
 70
     6
  9
$SURFV
 70
     6
  9
$UCSNAME
  2

  9
$UCSORG
 10
0.0
 20
0.0
 30
0.0
  9
$UCSXDIR
 10
1.0
 20
0.0
 30
0.0
  9
$UCSYDIR
 10
0.0
 20
1.0
 30
0.0
  9
$PUCSNAME
  2

  9
$PUCSORG
 10
0.0
 20
0.0
 30
0.0
  9
$PUCSXDIR
 10
1.0
 20
0.0
 30
0.0
  9
$PUCSYDIR
 10
0.0
 20
1.0
 30
0.0
  9
$USERI1
 70
     0
  9
$USERI2
 70
     0
  9
$USERI3
 70
     0
  9
$USERI4
 70
     0
  9
$USERI5
 70
     0
  9
$USERR1
 40
0.0
  9
$USERR2
 40
0.0
  9
$USERR3
 40
0.0
  9
$USERR4
 40
0.0
  9
$USERR5
 40
0.0
  9
$WORLDVIEW
 70
     1
  9
$SHADEDGE
 70
     3
  9
$SHADEDIF
 70
    70
  9
$TILEMODE
 70
     1
  9
$MAXACTVP
 70
    64
  9
$PLIMCHECK
 70
     0
  9
$PEXTMIN
 10
1.0000000000000000E+020
 20
1.0000000000000000E+020
 30
1.0000000000000000E+020
  9
$PEXTMAX
 10
-1.0000000000000000E+020
 20
-1.0000000000000000E+020
 30
-1.0000000000000000E+020
  9
$PLIMMIN
 10
0.0
 20
0.0
  9
$PLIMMAX
 10
420.0
 20
297.0
  9
$UNITMODE
 70
     0
  9
$VISRETAIN
 70
     1
  9
$PLINEGEN
 70
     0
  9
$PSLTSCALE
 70
     1
  0
ENDSEC
  0
SECTION
  2
TABLES
  0
TABLE
  2
VPORT
 70
     3
  0
VPORT
  2
*ACTIVE
 70
     0
 10
0.0
 20
0.0
 11
1.0
 21
1.0
 12
212.36907582938389
 22
148.5
 13
0.0
 23
0.0
 14
10.0
 24
10.0
 15
10.0
 25
10.0
 16
0.0
 26
0.0
 36
1.0
 17
0.0
 27
0.0
 37
0.0
 40
297.0
 41
1.430094786729857
 42
50.0
 43
0.0
 44
0.0
 50
0.0
 51
0.0
 71
     0
 72
   100
 73
     1
 74
     3
 75
     0
 76
     0
 77
     0
 78
     0
  0
ENDTAB
  0
TABLE
  2
LTYPE
 70
     1
  0
LTYPE
  2
CONTINUOUS
 70
     0
  3
Solid line
 72
    65
 73
     0
 40
0.0
  0
ENDTAB
  0
TABLE
  2
LAYER
 70
     3
  0
LAYER
  2
0
 70
     0
 62
     7
  6
CONTINUOUS
  0
LAYER
  2
1外形線
 70
     0
 62
     3
  6
CONTINUOUS
  0
LAYER
  2
C4
 70
     0
 62
     3
  6
CONTINUOUS
  0
ENDTAB
  0
TABLE
  2
STYLE
 70
     2
  0
STYLE
  2
STANDARD
 70
     0
 40
0.0
 41
1.0
 50
0.0
 71
     0
 42
2.5
  3
txt
  4

  0
STYLE
  2
KANJI
 70
     0
 40
0.0
 41
1.0
 50
0.0
 71
     0
 42
2.5
  3
simplex.shx
  4
extfont.shx
  0
ENDTAB
  0
TABLE
  2
VIEW
 70
     0
  0
ENDTAB
  0
TABLE
  2
UCS
 70
     0
  0
ENDTAB
  0
TABLE
  2
APPID
 70
     1
  0
APPID
  2
ACAD
 70
     0
  0
ENDTAB
  0
TABLE
  2
DIMSTYLE
 70
     2
  0
DIMSTYLE
  2
ISO-25
 70
     0
  3

  4

  5

  6

  7

 40
1.0
 41
2.5
 42
0.625
 43
3.75
 44
1.25
 45
0.0
 46
0.0
 47
0.0
 48
0.0
140
2.5
141
2.5
142
0.0
143
0.03937007874016
144
1.0
145
0.0
146
1.0
147
0.625
 71
     0
 72
     0
 73
     0
 74
     0
 75
     0
 76
     0
 77
     1
 78
     8
170
     0
171
     3
172
     1
173
     0
174
     0
175
     0
176
     0
177
     0
178
     0
  0
DIMSTYLE
  2
STANDARD
 70
     0
  3

  4

  5

  6

  7

 40
1.0
 41
0.18
 42
0.0625
 43
0.38
 44
0.18
 45
0.0
 46
0.0
 47
0.0
 48
0.0
140
0.18
141
0.09
142
0.0
143
25.399999999999999
144
1.0
145
0.0
146
1.0
147
0.09
 71
     0
 72
     0
 73
     1
 74
     1
 75
     0
 76
     0
 77
     0
 78
     0
170
     0
171
     2
172
     0
173
     0
174
     0
175
     0
176
     0
177
     0
178
     0
  0
ENDTAB
  0
ENDSEC
  0
SECTION
  2
BLOCKS
  0
BLOCK
  8
0
  2
$MODEL_SPACE
 70
     0
 10
0.0
 20
0.0
 30
0.0
  3
$MODEL_SPACE
  1

  0
ENDBLK
  5
21
  8
0
  0
BLOCK
 67
     1
  8
0
  2
$PAPER_SPACE
 70
     0
 10
0.0
 20
0.0
 30
0.0
  3
$PAPER_SPACE
  1

  0
ENDBLK
  5
1D
 67
     1
  8
0
  0
BLOCK
  8
0
  2
2
 70
     0
 10
0.0
 20
0.0
 30
0.0
  3
2
  1

  0
INSERT
  5
2C
  8
0
  6
CONTINUOUS
  2
*U3
 10
0.0
 20
0.0
 30
0.0
1001
ACAD
1002
{
1000
R14_HATCH_DATA
1000
2C
1011
1.0
1021
0.0
1031
-2.3714219875802803E+081
1021
0.0
1031
0.0
1011
0.0
1021
0.0
1031
-2.3714219875802803E+081
1021
1.0
1031
0.0
1011
0.0
1021
0.0
1031
-2.3714219875802803E+081
1021
0.0
1031
1.0
1040
0.0
1010
0.0
1020
0.0
1030
1.0
1000
SOLID
1070
     1
1070
     1
1071
        1
1071
        7
1070
     0
1070
     1
1071
        3
1040
0.0000000000000284
1040
0.0
1040
-0.899999999998343
1040
0.2411542731875897
1040
-0.8999999999983572
1040
-0.2411542731875613
1071
        3
1005
2F
1005
2D
1005
30
1070
     0
1070
     1
1040
0.0028941747346077
1071
        1
1040
-0.5303136156475148
1040
-0.0796654556697263
1040
0.0
1002
}
  0
LINE
  5
2D
  8
0
 10
-0.8999999999983572
 20
0.2411542731879876
 30
0.0
 11
-0.8999999999983572
 21
-0.2411542731880445
 31
0.0
  0
LINE
  5
2E
  8
0
 10
-0.9999999999983515
 20
0.0
 30
0.0
 11
0.0
 21
0.0
 31
0.0
  0
LINE
  5
2F
  8
0
 10
-0.8999999999984424
 20
0.2411542731875897
 30
0.0
 11
0.0
 21
0.0
 31
0.0
  0
LINE
  5
30
  8
0
 10
-0.8999999999984424
 20
-0.2411542731875897
 30
0.0
 11
0.0
 21
0.0
 31
0.0
  0
ENDBLK
  5
32
  8
0
  0
BLOCK
  8
0
  2
*U3
 70
     1
 10
0.0
 20
0.0
 30
0.0
  3
*U3
  1

  0
SOLID
  5
26A
  8
0
  6
CONTINUOUS
 10
-0.5999999999988905
 20
0.0000000000000095
 30
0.0
 11
0.0000000000000284
 21
0.0
 31
0.0
 12
-0.899999999998343
 22
0.2411542731875897
 32
0.0
 13
-0.899999999998343
 23
0.2411542731875897
 33
0.0
210
0.0
220
0.0
230
1.0
  0
SOLID
  5
26B
  8
0
  6
CONTINUOUS
 10
-0.5999999999988905
 20
0.0000000000000095
 30
0.0
 11
-0.899999999998343
 21
0.2411542731875897
 31
0.0
 12
-0.8999999999983572
 22
-0.2411542731875613
 32
0.0
 13
-0.8999999999983572
 23
-0.2411542731875613
 33
0.0
  0
SOLID
  5
26C
  8
0
  6
CONTINUOUS
 10
-0.5999999999988905
 20
0.0000000000000095
 30
0.0
 11
-0.8999999999983572
 21
-0.2411542731875613
 31
0.0
 12
0.0000000000000284
 22
0.0
 32
0.0
 13
0.0000000000000284
 23
0.0
 33
0.0
210
0.0
220
0.0
230
1.0
  0
ENDBLK
  5
26E
  8
0
  0
ENDSEC
  0
SECTION
  2
ENTITIES
  0
LINE
  5
14F
  8
1外形線
 10
354.21719343584721
 20
857.74970268115703
 30
0.0
 11
354.21719343584721
 21
17.749702681156919
 31
0.0
  0
LINE
  5
150
  8
1外形線
 10
26.194530859682452
 20
857.74970268115703
 30
0.0
 11
26.194530859682452
 21
17.749702681156919
 31
0.0
  0
LINE
  5
151
  8
1外形線
 10
26.194530859682452
 20
17.749702681156919
 30
0.0
 11
354.21719343584721
 21
17.749702681156919
 31
0.0
  0
LINE
  5
152
  8
1外形線
 10
354.21719343584721
 20
245.74970268115689
 30
0.0
 11
26.194530859682452
 21
245.74970268115689
 31
0.0
  0
LINE
  5
153
  8
1外形線
 10
354.21719343584721
 20
458.7497026811568
 30
0.0
 11
26.194530859682452
 21
458.7497026811568
 31
0.0
  0
LINE
  5
154
  8
C4
 10
78.194530859682459
 20
163.74970268115689
 30
0.0
 11
254.32899901853159
 21
163.74970268115689
 31
0.0
  0
LINE
  5
155
  8
C4
 10
254.32899901853159
 20
185.74970268115689
 30
0.0
 11
78.194530859682459
 21
185.74970268115689
 31
0.0
  0
LINE
  5
156
  8
C4
 10
78.32899901853159
 20
175.74970268115689
 30
0.0
 11
226.3289990185315
 21
175.74970268115689
 31
0.0
  0
LINE
  5
157
  8
C4
 10
78.32899901853159
 20
173.74970268115689
 30
0.0
 11
226.3289990185315
 21
173.74970268115689
 31
0.0
  0
LINE
  5
158
  8
C4
 10
104.3289990185315
 20
132.74970268115689
 30
0.0
 11
200.32899901853159
 21
132.74970268115689
 31
0.0
  0
LINE
  5
159
  8
C4
 10
104.3289990185315
 20
130.2497026811568
 30
0.0
 11
200.32899901853159
 21
130.2497026811568
 31
0.0
  0
LINE
  5
15A
  8
C4
 10
104.3289990185315
 20
133.74970268115689
 30
0.0
 11
200.32899901853159
 21
133.74970268115689
 31
0.0
  0
ARC
  5
15B
  8
C4
 10
154.3289990185315
 20
320.74970268115692
 30
0.0
 40
22.49999999999994
 50
0.0
 51
90.0
  0
ARC
  5
15C
  8
C4
 10
154.3289990185315
 20
320.74970268115692
 30
0.0
 40
26.0
 50
0.0
 51
90.0
  0
ARC
  5
15D
  8
C4
 10
154.3289990185315
 20
320.74970268115692
 30
0.0
 40
25.0
 50
0.0
 51
90.0
  0
ARC
  5
15E
  8
C4
 10
179.3289990185315
 20
282.24970268115692
 30
0.0
 40
2.5
 50
180.0
 51
270.0
  0
LINE
  5
15F
  8
C4
 10
78.32899901853159
 20
388.74970268115692
 30
0.0
 11
180.3289990185315
 21
388.74970268115692
 31
0.0
  0
LINE
  5
160
  8
C4
 10
78.32899901853159
 20
386.74970268115692
 30
0.0
 11
180.3289990185315
 21
386.74970268115692
 31
0.0
  0
LINE
  5
161
  8
C4
 10
208.32899901853159
 20
398.74970268115692
 30
0.0
 11
78.194530859682459
 21
398.74970268115692
 31
0.0
  0
LINE
  5
162
  8
C4
 10
78.194530859682459
 20
376.74970268115692
 30
0.0
 11
208.32899901853159
 21
376.74970268115692
 31
0.0
  0
ARC
  5
163
  8
C4
 10
104.3289990185315
 20
107.7497026811569
 30
0.0
 40
25.0
 50
90.0
 51
180.0
  0
ARC
  5
164
  8
C4
 10
104.3289990185315
 20
107.7497026811569
 30
0.0
 40
22.49999999999994
 50
90.0
 51
180.0
  0
ARC
  5
165
  8
C4
 10
104.3289990185315
 20
107.7497026811569
 30
0.0
 40
26.0
 50
90.0
 51
180.0
  0
LINE
  5
166
  8
C4
 10
79.32899901853159
 20
52.528008018514008
 30
0.0
 11
79.32899901853159
 21
107.7497026811569
 31
0.0
  0
LINE
  5
167
  8
C4
 10
81.828999018531604
 20
60.249702681156919
 30
0.0
 11
81.828999018531604
 21
107.7497026811569
 31
0.0
  0
LINE
  5
168
  8
C4
 10
78.32899901853159
 20
52.749702681156919
 30
0.0
 11
78.32899901853159
 21
107.7497026811569
 31
0.0
  0
LINE
  5
169
  8
C4
 10
77.100838646719126
 20
47.749702681156919
 30
0.0
 11
76.194530859682445
 21
48.172320942897493
 31
0.0
  0
LINE
  5
16A
  8
C4
 10
79.32899901853159
 20
52.528008018514008
 30
0.0
 11
77.100838646719126
 21
47.749702681156919
 31
0.0
  0
LINE
  5
16B
  8
C4
 10
78.32899901853159
 20
52.749702681156919
 30
0.0
 11
76.194530859682445
 21
48.172320942897493
 31
0.0
  0
ARC
  5
16C
  8
C4
 10
79.32899901853159
 20
60.249702681156919
 30
0.0
 40
2.5
 50
270.0
 51
0.0
  0
LINE
  5
16D
  8
C4
 10
76.194530859682445
 20
165.74970268115689
 30
0.0
 11
76.194530859682445
 21
183.74970268115689
 31
0.0
  0
LINE
  5
16E
  8
C4
 10
78.32899901853159
 20
163.74970268115689
 30
0.0
 11
78.32899901853159
 21
185.74970268115689
 31
0.0
  0
ARC
  5
16F
  8
C4
 10
78.194530859682459
 20
165.74970268115689
 30
0.0
 40
2.0
 50
180.0
 51
270.0
  0
ARC
  5
170
  8
C4
 10
78.194530859682459
 20
183.74970268115689
 30
0.0
 40
2.0
 50
90.0
 51
180.0
  0
ARC
  5
171
  8
C4
 10
78.328999018531363
 20
174.74970268115709
 30
0.0
 40
0.9999999999998294
 50
270.00000000001302
 51
89.999999999986969
  0
ARC
  5
172
  8
C4
 10
104.3289990185315
 20
320.74970268115692
 30
0.0
 40
22.49999999999994
 50
90.0
 51
180.0
  0
ARC
  5
173
  8
C4
 10
104.3289990185315
 20
320.74970268115692
 30
0.0
 40
26.0
 50
90.0
 51
180.0
  0
ARC
  5
174
  8
C4
 10
104.3289990185315
 20
320.74970268115692
 30
0.0
 40
25.0
 50
90.0
 51
180.0
  0
TEXT
  5
175
  8
1外形線
 10
76.194528868216707
 20
215.74970188955891
 30
0.0
 40
10.0
  1
SFS-140
  7
KANJI
  0
LINE
  5
176
  8
C4
 10
81.828999018531604
 20
288.24970268115692
 30
0.0
 11
81.828999018531604
 21
320.74970268115692
 31
0.0
  0
LINE
  5
177
  8
C4
 10
79.32899901853159
 20
280.52800801851402
 30
0.0
 11
79.32899901853159
 21
320.74970268115692
 31
0.0
  0
LINE
  5
178
  8
C4
 10
78.32899901853159
 20
280.74970268115692
 30
0.0
 11
78.32899901853159
 21
320.74970268115692
 31
0.0
  0
LINE
  5
179
  8
C4
 10
79.32899901853159
 20
280.52800801851402
 30
0.0
 11
77.100838646719126
 21
275.74970268115692
 31
0.0
  0
LINE
  5
17A
  8
C4
 10
77.100838646719126
 20
275.74970268115692
 30
0.0
 11
76.194530859682445
 21
276.17232094289739
 31
0.0
  0
LINE
  5
17B
  8
C4
 10
78.32899901853159
 20
280.74970268115692
 30
0.0
 11
76.194530859682445
 21
276.17232094289739
 31
0.0
  0
ARC
  5
17C
  8
C4
 10
79.32899901853159
 20
288.24970268115692
 30
0.0
 40
2.5
 50
270.0
 51
0.0
  0
LINE
  5
17D
  8
C4
 10
176.82899901853159
 20
320.74970268115692
 30
0.0
 11
176.82899901853159
 21
282.24970268115692
 31
0.0
  0
TEXT
  5
17E
  8
1外形線
 10
76.194528868216707
 20
428.74970188955899
 30
0.0
 40
10.0
  1
SFS-100
  7
KANJI
  0
LINE
  5
17F
  8
C4
 10
104.3289990185315
 20
345.74970268115692
 30
0.0
 11
154.3289990185315
 21
345.74970268115692
 31
0.0
  0
LINE
  5
180
  8
C4
 10
104.3289990185315
 20
346.74970268115692
 30
0.0
 11
154.3289990185315
 21
346.74970268115692
 31
0.0
  0
LINE
  5
181
  8
C4
 10
104.3289990185315
 20
343.2497026811568
 30
0.0
 11
154.3289990185315
 21
343.2497026811568
 31
0.0
  0
LINE
  5
182
  8
C4
 10
76.194530859682445
 20
378.74970268115692
 30
0.0
 11
76.194530859682445
 21
396.74970268115692
 31
0.0
  0
LINE
  5
183
  8
C4
 10
78.32899901853159
 20
376.74970268115692
 30
0.0
 11
78.32899901853159
 21
398.74970268115692
 31
0.0
  0
ARC
  5
184
  8
C4
 10
78.194530859682459
 20
378.74970268115692
 30
0.0
 40
2.0
 50
180.0
 51
270.0
  0
ARC
  5
185
  8
C4
 10
78.194530859682459
 20
396.74970268115692
 30
0.0
 40
2.0
 50
90.0
 51
180.0
  0
ARC
  5
186
  8
C4
 10
78.328999018531363
 20
387.74970268115709
 30
0.0
 40
0.9999999999998294
 50
270.00000000001302
 51
89.999999999986969
  0
CIRCLE
  5
187
  8
1外形線
 10
243.82899901853159
 20
174.74970268115689
 30
0.0
 40
3.5
  0
CIRCLE
  5
188
  8
1外形線
 10
243.82899901853159
 20
174.74970268115689
 30
0.0
 40
6.0
  0
LINE
  5
189
  8
C4
 10
240.3289990185315
 20
50.50200322971488
 30
0.0
 11
247.3289990185315
 21
50.50200322971488
 31
0.0
  0
LINE
  5
18A
  8
C4
 10
247.3289990185315
 20
50.50200322971488
 30
0.0
 11
240.3289990185315
 21
50.50200322971488
 31
0.0
  0
LINE
  5
18B
  8
C4
 10
256.32899901853159
 20
49.749702681156919
 30
0.0
 11
227.3795092757484
 21
49.749702681156919
 31
0.0
  0
LINE
  5
18C
  8
C4
 10
256.32899901853159
 20
48.749702681156919
 30
0.0
 11
229.8289990185315
 21
48.749702681156919
 31
0.0
  0
LINE
  5
18D
  8
C4
 10
229.8289990185315
 20
47.749702681156919
 30
0.0
 11
256.32899901853159
 21
47.749702681156919
 31
0.0
  0
ARC
  5
18E
  8
C4
 10
200.32899901853159
 20
107.7497026811569
 30
0.0
 40
25.0
 50
0.0
 51
90.0
  0
ARC
  5
18F
  8
C4
 10
200.32899901853159
 20
107.7497026811569
 30
0.0
 40
22.49999999999994
 50
0.0
 51
90.0
  0
ARC
  5
190
  8
C4
 10
200.32899901853159
 20
107.7497026811569
 30
0.0
 40
26.0
 50
0.0
 51
90.0
  0
LINE
  5
191
  8
C4
 10
225.32899901853159
 20
107.7497026811569
 30
0.0
 11
225.32899901853159
 21
52.249702681156919
 31
0.0
  0
LINE
  5
192
  8
C4
 10
222.82899901853159
 20
107.7497026811569
 30
0.0
 11
222.82899901853159
 21
54.249702681156919
 31
0.0
  0
LINE
  5
193
  8
C4
 10
226.3289990185315
 20
107.7497026811569
 30
0.0
 11
226.3289990185315
 21
52.249702681156919
 31
0.0
  0
ARC
  5
194
  8
C4
 10
229.8289990185315
 20
52.249702681156919
 30
0.0
 40
3.5
 50
180.0
 51
270.0
  0
ARC
  5
195
  8
C4
 10
229.8289990185315
 20
52.249702681156919
 30
0.0
 40
4.5
 50
180.0
 51
270.0
  0
ARC
  5
196
  8
C4
 10
225.32899901853159
 20
54.249702681156919
 30
0.0
 40
2.5
 50
180.0
 51
270.0
  0
ARC
  5
197
  8
C4
 10
240.3289990185315
 20
49.502003229714887
 30
0.0
 40
1.0
 50
90.0
 51
162.38751922876099
  0
ARC
  5
198
  8
C4
 10
238.89931184886319
 20
49.95586950615052
 30
0.0
 40
0.5
 50
335.64848441267623
 51
342.38751922876099
  0
ARC
  5
199
  8
C4
 10
226.32899901853091
 20
174.74970268115669
 30
0.0
 40
1.000000000000284
 50
89.99999999996092
 51
270.00000000003899
  0
LINE
  5
19A
  8
C4
 10
226.3289990185315
 20
163.74970268115689
 30
0.0
 11
226.3289990185315
 21
173.74970268115689
 31
0.0
  0
LINE
  5
19B
  8
C4
 10
226.3289990185315
 20
175.74970268115689
 30
0.0
 11
226.3289990185315
 21
185.74970268115689
 31
0.0
  0
LINE
  5
19C
  8
C4
 10
304.32899901853159
 20
133.74970268115689
 30
0.0
 11
304.32899901853159
 21
48.749702681156919
 31
0.0
  0
LINE
  5
19D
  8
C4
 10
286.32899901853148
 20
48.749702681156919
 30
0.0
 11
286.32899901853148
 21
133.74970268115689
 31
0.0
  0
LINE
  5
19E
  8
C4
 10
296.32899901853159
 20
53.749702681156919
 30
0.0
 11
296.32899901853159
 21
133.74970268115689
 31
0.0
  0
LINE
  5
19F
  8
C4
 10
294.32899901853159
 20
53.749702681156919
 30
0.0
 11
294.32899901853159
 21
133.74970268115689
 31
0.0
  0
ARC
  5
1A0
  8
C4
 10
247.3289990185315
 20
49.502003229714887
 30
0.0
 40
1.0
 50
17.61248077123896
 51
90.0
  0
ARC
  5
1A1
  8
C4
 10
248.7586861881999
 20
49.95586950615052
 30
0.0
 40
0.5
 50
197.61248077123889
 51
204.35151558732369
  0
LINE
  5
1A2
  8
C4
 10
256.32899901853159
 20
47.749702681156919
 30
0.0
 11
256.32899901853159
 21
49.749702681156919
 31
0.0
  0
ARC
  5
1A3
  8
C4
 10
295.32899901853148
 20
8.7497026811569185
 30
0.0
 40
40.0
 50
77.161431859015821
 51
102.8385681409839
  0
ARC
  5
1A4
  8
C4
 10
295.32899901853148
 20
8.7497026811569185
 30
0.0
 40
41.0
 50
77.319616508178953
 51
102.680383491821
  0
LINE
  5
1A5
  8
C4
 10
286.44080460121597
 20
47.749702681156919
 30
0.0
 11
286.32899901853148
 21
48.749702681156919
 31
0.0
  0
LINE
  5
1A6
  8
C4
 10
291.82899901853159
 20
50.50200322971488
 30
0.0
 11
298.82899901853148
 21
50.50200322971488
 31
0.0
  0
ARC
  5
1A7
  8
C4
 10
291.82899901853159
 20
49.502003229714887
 30
0.0
 40
1.0
 50
90.0
 51
162.38751922876099
  0
ARC
  5
1A8
  8
C4
 10
290.39931184886319
 20
49.95586950615052
 30
0.0
 40
0.5
 50
276.82213916494101
 51
342.38751922876099
  0
ARC
  5
1A9
  8
C4
 10
295.32899901853148
 20
52.749702681156919
 30
0.0
 40
1.0
 50
180.0
 51
0.0
  0
LINE
  5
1AA
  8
C4
 10
304.21719343584721
 20
47.749702681156919
 30
0.0
 11
304.32899901853159
 21
48.749702681156919
 31
0.0
  0
ARC
  5
1AB
  8
C4
 10
298.82899901853148
 20
49.502003229714887
 30
0.0
 40
1.0
 50
17.61248077123896
 51
90.0
  0
ARC
  5
1AC
  8
C4
 10
300.25868618819987
 20
49.95586950615052
 30
0.0
 40
0.5
 50
197.61248077123889
 51
263.17786083505888
  0
LINE
  5
1AD
  8
C4
 10
256.32899901853159
 20
165.74970268115689
 30
0.0
 11
256.32899901853159
 21
183.74970268115689
 31
0.0
  0
ARC
  5
1AE
  8
C4
 10
254.32899901853159
 20
165.74970268115689
 30
0.0
 40
2.0
 50
270.0
 51
0.0
  0
ARC
  5
1AF
  8
C4
 10
254.32899901853159
 20
183.74970268115689
 30
0.0
 40
2.0
 50
0.0
 51
90.0
  0
LINE
  5
1B0
  8
C4
 10
286.32899901853148
 20
133.74970268115689
 30
0.0
 11
294.32899901853159
 21
133.74970268115689
 31
0.0
  0
LINE
  5
1B1
  8
C4
 10
296.32899901853159
 20
133.74970268115689
 30
0.0
 11
304.32899901853159
 21
133.74970268115689
 31
0.0
  0
ARC
  5
1B2
  8
C4
 10
295.32899901853148
 20
133.74970268115689
 30
0.0
 40
1.0
 50
180.0
 51
0.0
  0
LINE
  5
1B3
  8
C4
 10
258.32899901853159
 20
346.74970268115692
 30
0.0
 11
258.32899901853159
 21
276.74970268115692
 31
0.0
  0
LINE
  5
1B4
  8
C4
 10
240.3289990185315
 20
276.74970268115692
 30
0.0
 11
240.3289990185315
 21
346.74970268115692
 31
0.0
  0
LINE
  5
1B5
  8
C4
 10
250.32899901853159
 20
281.74970268115692
 30
0.0
 11
250.32899901853159
 21
346.74970268115692
 31
0.0
  0
LINE
  5
1B6
  8
C4
 10
248.32899901853159
 20
281.74970268115692
 30
0.0
 11
248.32899901853159
 21
346.74970268115692
 31
0.0
  0
ARC
  5
1B7
  8
C4
 10
249.3289990185315
 20
236.74970268115689
 30
0.0
 40
40.0
 50
77.161431859015821
 51
102.8385681409839
  0
ARC
  5
1B8
  8
C4
 10
249.3289990185315
 20
236.74970268115689
 30
0.0
 40
41.0
 50
77.319616508178953
 51
102.680383491821
  0
LINE
  5
1B9
  8
C4
 10
183.82899901853159
 20
275.74970268115692
 30
0.0
 11
210.32899901853159
 21
275.74970268115692
 31
0.0
  0
LINE
  5
1BA
  8
C4
 10
210.32899901853159
 20
276.74970268115692
 30
0.0
 11
183.82899901853159
 21
276.74970268115692
 31
0.0
  0
LINE
  5
1BB
  8
C4
 10
210.32899901853159
 20
277.74970268115692
 30
0.0
 11
181.3795092757484
 21
277.74970268115692
 31
0.0
  0
LINE
  5
1BC
  8
C4
 10
179.3289990185315
 20
320.74970268115692
 30
0.0
 11
179.3289990185315
 21
280.24970268115692
 31
0.0
  0
LINE
  5
1BD
  8
C4
 10
180.3289990185315
 20
320.74970268115692
 30
0.0
 11
180.3289990185315
 21
280.24970268115692
 31
0.0
  0
ARC
  5
1BE
  8
C4
 10
194.32899901853159
 20
277.50200322971477
 30
0.0
 40
1.0
 50
90.0
 51
162.38751922876099
  0
ARC
  5
1BF
  8
C4
 10
183.82899901853159
 20
280.24970268115692
 30
0.0
 40
4.5
 50
180.0
 51
270.0
  0
ARC
  5
1C0
  8
C4
 10
183.82899901853159
 20
280.24970268115692
 30
0.0
 40
3.5
 50
180.0
 51
270.0
  0
ARC
  5
1C1
  8
C4
 10
192.89931184886319
 20
277.95586950615052
 30
0.0
 40
0.5
 50
335.64848441267623
 51
342.38751922876099
  0
ARC
  5
1C2
  8
C4
 10
201.3289990185315
 20
277.50200322971477
 30
0.0
 40
1.0
 50
17.61248077123896
 51
90.0
  0
LINE
  5
1C3
  8
C4
 10
201.3289990185315
 20
278.50200322971477
 30
0.0
 11
194.32899901853159
 21
278.50200322971477
 31
0.0
  0
LINE
  5
1C4
  8
C4
 10
194.32899901853159
 20
278.50200322971477
 30
0.0
 11
201.3289990185315
 21
278.50200322971477
 31
0.0
  0
ARC
  5
1C5
  8
C4
 10
202.7586861881999
 20
277.95586950615052
 30
0.0
 40
0.5
 50
197.61248077123889
 51
204.35151558732369
  0
LINE
  5
1C6
  8
C4
 10
210.32899901853159
 20
275.74970268115692
 30
0.0
 11
210.32899901853159
 21
277.74970268115692
 31
0.0
  0
LINE
  5
1C7
  8
C4
 10
240.44080460121589
 20
275.74970268115692
 30
0.0
 11
240.3289990185315
 21
276.74970268115692
 31
0.0
  0
LINE
  5
1C8
  8
C4
 10
245.82899901853159
 20
278.50200322971477
 30
0.0
 11
252.8289990185315
 21
278.50200322971477
 31
0.0
  0
ARC
  5
1C9
  8
C4
 10
249.3289990185315
 20
280.74970268115692
 30
0.0
 40
1.0
 50
180.0
 51
0.0
  0
ARC
  5
1CA
  8
C4
 10
245.82899901853159
 20
277.50200322971477
 30
0.0
 40
1.0
 50
90.0
 51
162.38751922876099
  0
ARC
  5
1CB
  8
C4
 10
244.39931184886319
 20
277.95586950615052
 30
0.0
 40
0.5
 50
276.82213916494101
 51
342.38751922876099
  0
ARC
  5
1CC
  8
C4
 10
252.8289990185315
 20
277.50200322971477
 30
0.0
 40
1.0
 50
17.61248077123896
 51
90.0
  0
ARC
  5
1CD
  8
C4
 10
254.2586861881999
 20
277.95586950615052
 30
0.0
 40
0.5
 50
197.61248077123889
 51
263.17786083505888
  0
LINE
  5
1CE
  8
C4
 10
258.21719343584721
 20
275.74970268115692
 30
0.0
 11
258.32899901853159
 21
276.74970268115692
 31
0.0
  0
LINE
  5
1CF
  8
C4
 10
240.3289990185315
 20
346.74970268115692
 30
0.0
 11
248.32899901853159
 21
346.74970268115692
 31
0.0
  0
ARC
  5
1D0
  8
C4
 10
208.32899901853159
 20
396.74970268115692
 30
0.0
 40
2.0
 50
0.0
 51
90.0
  0
ARC
  5
1D1
  8
C4
 10
208.32899901853159
 20
378.74970268115692
 30
0.0
 40
2.0
 50
270.0
 51
0.0
  0
CIRCLE
  5
1D2
  8
1外形線
 10
197.8289990185315
 20
387.74970268115692
 30
0.0
 40
6.0
  0
LINE
  5
1D3
  8
C4
 10
180.3289990185315
 20
376.74970268115692
 30
0.0
 11
180.3289990185315
 21
386.74970268115692
 31
0.0
  0
ARC
  5
1D4
  8
C4
 10
180.32899901853091
 20
387.74970268115669
 30
0.0
 40
1.000000000000284
 50
89.99999999996092
 51
270.00000000003899
  0
LINE
  5
1D5
  8
C4
 10
180.3289990185315
 20
388.74970268115692
 30
0.0
 11
180.3289990185315
 21
398.74970268115692
 31
0.0
  0
CIRCLE
  5
1D6
  8
1外形線
 10
197.8289990185315
 20
387.74970268115692
 30
0.0
 40
3.5
  0
LINE
  5
1D7
  8
C4
 10
210.32899901853159
 20
378.74970268115692
 30
0.0
 11
210.32899901853159
 21
396.74970268115692
 31
0.0
  0
LINE
  5
1D8
  8
C4
 10
250.32899901853159
 20
346.74970268115692
 30
0.0
 11
258.32899901853159
 21
346.74970268115692
 31
0.0
  0
ARC
  5
1D9
  8
C4
 10
249.3289990185315
 20
346.74970268115692
 30
0.0
 40
1.0
 50
180.0
 51
0.0
  0
LINE
  5
1DA
  8
1外形線
 10
354.21719343584721
 20
660.74970268115703
 30
0.0
 11
26.194530859682452
 21
660.74970268115703
 31
0.0
  0
LINE
  5
1DB
  8
1外形線
 10
26.194530859682452
 20
857.74970268115703
 30
0.0
 11
354.21719343584721
 21
857.74970268115703
 31
0.0
  0
LINE
  5
1DC
  8
C4
 10
185.3289990185315
 20
490.74970268115692
 30
0.0
 11
156.3795092757484
 21
490.74970268115692
 31
0.0
  0
LINE
  5
1DD
  8
C4
 10
185.3289990185315
 20
489.74970268115692
 30
0.0
 11
158.82899901853159
 21
489.74970268115692
 31
0.0
  0
LINE
  5
1DE
  8
C4
 10
158.82899901853159
 20
488.74970268115692
 30
0.0
 11
185.3289990185315
 21
488.74970268115692
 31
0.0
  0
LINE
  5
1DF
  8
C4
 10
78.194530859682459
 20
582.74970268115703
 30
0.0
 11
183.3289990185315
 21
582.74970268115703
 31
0.0
  0
LINE
  5
1E0
  8
C4
 10
183.3289990185315
 20
600.74970268115703
 30
0.0
 11
78.194530859682459
 21
600.74970268115703
 31
0.0
  0
ARC
  5
1E1
  8
C4
 10
101.3289990185315
 20
726.74970268115703
 30
0.0
 40
22.0
 50
90.0
 51
180.0
  0
ARC
  5
1E2
  8
C4
 10
101.3289990185315
 20
726.74970268115703
 30
0.0
 40
23.0
 50
90.0
 51
180.0
  0
ARC
  5
1E3
  8
C4
 10
117.3289990185315
 20
726.74970268115703
 30
0.0
 40
22.0
 50
0.0
 51
90.0
  0
ARC
  5
1E4
  8
C4
 10
117.3289990185315
 20
726.74970268115703
 30
0.0
 40
23.0
 50
0.0
 51
90.0
  0
LINE
  5
1E5
  8
C4
 10
101.3289990185315
 20
549.24970268115692
 30
0.0
 11
132.3289990185315
 21
549.24970268115692
 31
0.0
  0
LINE
  5
1E6
  8
C4
 10
101.3289990185315
 20
552.74970268115703
 30
0.0
 11
132.3289990185315
 21
552.74970268115703
 31
0.0
  0
LINE
  5
1E7
  8
C4
 10
101.3289990185315
 20
551.74970268115703
 30
0.0
 11
132.3289990185315
 21
551.74970268115703
 31
0.0
  0
LINE
  5
1E8
  8
C4
 10
78.32899901853159
 20
590.74970268115703
 30
0.0
 11
155.3289990185315
 21
590.74970268115703
 31
0.0
  0
LINE
  5
1E9
  8
C4
 10
78.32899901853159
 20
592.74970268115703
 30
0.0
 11
155.3289990185315
 21
592.74970268115703
 31
0.0
  0
ARC
  5
1EA
  8
C4
 10
101.3289990185315
 20
529.7497026811568
 30
0.0
 40
23.0
 50
90.0
 51
180.0
  0
ARC
  5
1EB
  8
C4
 10
101.3289990185315
 20
529.7497026811568
 30
0.0
 40
22.0
 50
90.0
 51
180.0
  0
ARC
  5
1EC
  8
C4
 10
101.3289990185315
 20
529.7497026811568
 30
0.0
 40
19.5
 50
90.0
 51
180.0
  0
LINE
  5
1ED
  8
C4
 10
81.828999018531604
 20
501.24970268115692
 30
0.0
 11
81.828999018531604
 21
529.7497026811568
 31
0.0
  0
LINE
  5
1EE
  8
C4
 10
78.32899901853159
 20
493.74970268115692
 30
0.0
 11
78.32899901853159
 21
529.7497026811568
 31
0.0
  0
LINE
  5
1EF
  8
C4
 10
79.32899901853159
 20
493.5280080185139
 30
0.0
 11
79.32899901853159
 21
529.7497026811568
 31
0.0
  0
LINE
  5
1F0
  8
C4
 10
77.100838646719126
 20
488.74970268115692
 30
0.0
 11
76.194530859682445
 21
489.17232094289761
 31
0.0
  0
LINE
  5
1F1
  8
C4
 10
79.32899901853159
 20
493.5280080185139
 30
0.0
 11
77.100838646719126
 21
488.74970268115692
 31
0.0
  0
LINE
  5
1F2
  8
C4
 10
78.32899901853159
 20
493.74970268115692
 30
0.0
 11
76.194530859682445
 21
489.17232094289761
 31
0.0
  0
ARC
  5
1F3
  8
C4
 10
79.32899901853159
 20
501.24970268115692
 30
0.0
 40
2.5
 50
270.0
 51
0.0
  0
LINE
  5
1F4
  8
C4
 10
78.32899901853159
 20
582.74970268115703
 30
0.0
 11
78.32899901853159
 21
600.74970268115703
 31
0.0
  0
LINE
  5
1F5
  8
C4
 10
76.194530859682445
 20
584.74970268115703
 30
0.0
 11
76.194530859682445
 21
598.74970268115703
 31
0.0
  0
ARC
  5
1F6
  8
C4
 10
78.328999018531363
 20
591.74970268115715
 30
0.0
 40
0.9999999999998294
 50
270.00000000001302
 51
89.999999999986969
  0
ARC
  5
1F7
  8
C4
 10
78.194530859682459
 20
584.74970268115703
 30
0.0
 40
2.0
 50
180.0
 51
270.0
  0
ARC
  5
1F8
  8
C4
 10
78.194530859682459
 20
598.74970268115703
 30
0.0
 40
2.0
 50
90.0
 51
180.0
  0
ARC
  5
1F9
  8
C4
 10
132.3289990185315
 20
529.7497026811568
 30
0.0
 40
19.5
 50
0.0
 51
90.0
  0
ARC
  5
1FA
  8
C4
 10
132.3289990185315
 20
529.7497026811568
 30
0.0
 40
23.0
 50
0.0
 51
90.0
  0
ARC
  5
1FB
  8
C4
 10
132.3289990185315
 20
529.7497026811568
 30
0.0
 40
22.0
 50
0.0
 51
90.0
  0
LINE
  5
1FC
  8
C4
 10
151.82899901853159
 20
529.7497026811568
 30
0.0
 11
151.82899901853159
 21
495.24970268115692
 31
0.0
  0
LINE
  5
1FD
  8
C4
 10
155.3289990185315
 20
529.7497026811568
 30
0.0
 11
155.3289990185315
 21
493.24970268115692
 31
0.0
  0
LINE
  5
1FE
  8
C4
 10
154.3289990185315
 20
529.7497026811568
 30
0.0
 11
154.3289990185315
 21
493.24970268115692
 31
0.0
  0
ARC
  5
1FF
  8
C4
 10
158.82899901853159
 20
493.24970268115692
 30
0.0
 40
4.5
 50
180.0
 51
270.0
  0
ARC
  5
200
  8
C4
 10
154.3289990185315
 20
495.24970268115692
 30
0.0
 40
2.5
 50
180.0
 51
270.0
  0
ARC
  5
201
  8
C4
 10
158.82899901853159
 20
493.24970268115692
 30
0.0
 40
3.5
 50
180.0
 51
270.0
  0
LINE
  5
202
  8
C4
 10
169.32899901853159
 20
491.50200322971489
 30
0.0
 11
176.3289990185315
 21
491.50200322971489
 31
0.0
  0
LINE
  5
203
  8
C4
 10
176.3289990185315
 20
491.50200322971489
 30
0.0
 11
169.32899901853159
 21
491.50200322971489
 31
0.0
  0
ARC
  5
204
  8
C4
 10
167.89931184886319
 20
490.95586950615052
 30
0.0
 40
0.5
 50
335.64848441267623
 51
342.38751922876099
  0
ARC
  5
205
  8
C4
 10
169.32899901853159
 20
490.50200322971489
 30
0.0
 40
1.0
 50
90.0
 51
162.38751922876099
  0
ARC
  5
206
  8
C4
 10
177.7586861881999
 20
490.95586950615052
 30
0.0
 40
0.5
 50
197.61248077123889
 51
204.35151558732369
  0
ARC
  5
207
  8
C4
 10
176.3289990185315
 20
490.50200322971489
 30
0.0
 40
1.0
 50
17.61248077123896
 51
90.0
  0
LINE
  5
208
  8
C4
 10
155.3289990185315
 20
592.74970268115703
 30
0.0
 11
155.3289990185315
 21
600.74970268115703
 31
0.0
  0
ARC
  5
209
  8
C4
 10
155.32899901853091
 20
591.7497026811568
 30
0.0
 40
1.000000000000284
 50
89.99999999996092
 51
270.00000000003899
  0
LINE
  5
20A
  8
C4
 10
155.3289990185315
 20
582.74970268115703
 30
0.0
 11
155.3289990185315
 21
590.74970268115703
 31
0.0
  0
CIRCLE
  5
20B
  8
C4
 10
172.8289990185315
 20
591.74970268115703
 30
0.0
 40
2.0
  0
CIRCLE
  5
20C
  8
C4
 10
172.8289990185315
 20
591.74970268115703
 30
0.0
 40
4.5
  0
TEXT
  5
20D
  8
1外形線
 10
76.194528868216707
 20
630.74970188955888
 30
0.0
 40
10.0
  1
SFS-77
  7
KANJI
  0
LINE
  5
20E
  8
C4
 10
101.3289990185315
 20
748.74970268115703
 30
0.0
 11
117.3289990185315
 21
748.74970268115703
 31
0.0
  0
LINE
  5
20F
  8
C4
 10
101.3289990185315
 20
749.74970268115703
 30
0.0
 11
117.3289990185315
 21
749.74970268115703
 31
0.0
  0
LINE
  5
210
  8
C4
 10
101.3289990185315
 20
746.24970268115703
 30
0.0
 11
117.3289990185315
 21
746.24970268115703
 31
0.0
  0
ARC
  5
211
  8
C4
 10
101.3289990185315
 20
726.74970268115703
 30
0.0
 40
19.5
 50
90.0
 51
180.0
  0
LINE
  5
212
  8
C4
 10
79.32899901853159
 20
695.52800801851413
 30
0.0
 11
79.32899901853159
 21
726.74970268115703
 31
0.0
  0
LINE
  5
213
  8
C4
 10
78.32899901853159
 20
695.74970268115703
 30
0.0
 11
78.32899901853159
 21
726.74970268115703
 31
0.0
  0
LINE
  5
214
  8
C4
 10
81.828999018531604
 20
703.24970268115703
 30
0.0
 11
81.828999018531604
 21
726.74970268115703
 31
0.0
  0
LINE
  5
215
  8
C4
 10
78.32899901853159
 20
695.74970268115703
 30
0.0
 11
76.194530859682445
 21
691.17232094289761
 31
0.0
  0
LINE
  5
216
  8
C4
 10
77.100838646719126
 20
690.74970268115703
 30
0.0
 11
76.194530859682445
 21
691.17232094289761
 31
0.0
  0
LINE
  5
217
  8
C4
 10
79.32899901853159
 20
695.52800801851413
 30
0.0
 11
77.100838646719126
 21
690.74970268115703
 31
0.0
  0
ARC
  5
218
  8
C4
 10
79.32899901853159
 20
703.24970268115703
 30
0.0
 40
2.5
 50
270.0
 51
0.0
  0
LINE
  5
219
  8
C4
 10
143.8289990185315
 20
690.74970268115703
 30
0.0
 11
170.3289990185315
 21
690.74970268115703
 31
0.0
  0
LINE
  5
21A
  8
C4
 10
170.3289990185315
 20
691.74970268115703
 30
0.0
 11
143.8289990185315
 21
691.74970268115703
 31
0.0
  0
LINE
  5
21B
  8
C4
 10
170.3289990185315
 20
692.74970268115703
 30
0.0
 11
141.3795092757484
 21
692.74970268115703
 31
0.0
  0
LINE
  5
21C
  8
C4
 10
139.3289990185315
 20
726.74970268115703
 30
0.0
 11
139.3289990185315
 21
695.24970268115703
 31
0.0
  0
LINE
  5
21D
  8
C4
 10
140.3289990185315
 20
726.74970268115703
 30
0.0
 11
140.3289990185315
 21
695.24970268115703
 31
0.0
  0
LINE
  5
21E
  8
C4
 10
136.8289990185315
 20
726.74970268115703
 30
0.0
 11
136.8289990185315
 21
697.24970268115703
 31
0.0
  0
ARC
  5
21F
  8
C4
 10
139.3289990185315
 20
697.24970268115703
 30
0.0
 40
2.5
 50
180.0
 51
270.0
  0
ARC
  5
220
  8
C4
 10
143.8289990185315
 20
695.24970268115703
 30
0.0
 40
4.5
 50
180.0
 51
270.0
  0
ARC
  5
221
  8
C4
 10
143.8289990185315
 20
695.24970268115703
 30
0.0
 40
3.5
 50
180.0
 51
270.0
  0
ARC
  5
222
  8
C4
 10
117.3289990185315
 20
726.74970268115703
 30
0.0
 40
19.5
 50
0.0
 51
90.0
  0
LINE
  5
223
  8
C4
 10
161.3289990185315
 20
693.502003229715
 30
0.0
 11
154.3289990185315
 21
693.502003229715
 31
0.0
  0
LINE
  5
224
  8
C4
 10
154.3289990185315
 20
693.502003229715
 30
0.0
 11
161.3289990185315
 21
693.502003229715
 31
0.0
  0
ARC
  5
225
  8
C4
 10
154.3289990185315
 20
692.50200322971489
 30
0.0
 40
1.0
 50
90.0
 51
162.38751922876099
  0
ARC
  5
226
  8
C4
 10
152.89931184886319
 20
692.95586950615063
 30
0.0
 40
0.5
 50
335.64848441267623
 51
342.38751922876099
  0
ARC
  5
227
  8
C4
 10
161.3289990185315
 20
692.50200322971489
 30
0.0
 40
1.0
 50
17.61248077123896
 51
90.0
  0
ARC
  5
228
  8
C4
 10
162.7586861881999
 20
692.95586950615063
 30
0.0
 40
0.5
 50
197.61248077123889
 51
204.35151558732369
  0
LINE
  5
229
  8
C4
 10
170.3289990185315
 20
690.74970268115703
 30
0.0
 11
170.3289990185315
 21
692.74970268115703
 31
0.0
  0
TEXT
  5
22A
  8
1外形線
 10
76.194528868216707
 20
827.74970188955911
 30
0.0
 40
10.0
  1
SFS-66
  7
KANJI
  0
LINE
  5
22B
  8
C4
 10
78.32899901853159
 20
789.74970268115703
 30
0.0
 11
140.3289990185315
 21
789.74970268115703
 31
0.0
  0
LINE
  5
22C
  8
C4
 10
78.32899901853159
 20
787.74970268115703
 30
0.0
 11
140.3289990185315
 21
787.74970268115703
 31
0.0
  0
LINE
  5
22D
  8
C4
 10
168.32899901853159
 20
797.74970268115703
 30
0.0
 11
78.194530859682459
 21
797.74970268115703
 31
0.0
  0
LINE
  5
22E
  8
C4
 10
78.194530859682459
 20
779.74970268115703
 30
0.0
 11
168.32899901853159
 21
779.74970268115703
 31
0.0
  0
LINE
  5
22F
  8
C4
 10
76.194530859682445
 20
781.74970268115703
 30
0.0
 11
76.194530859682445
 21
795.74970268115703
 31
0.0
  0
LINE
  5
230
  8
C4
 10
78.32899901853159
 20
779.74970268115703
 30
0.0
 11
78.32899901853159
 21
797.74970268115703
 31
0.0
  0
ARC
  5
231
  8
C4
 10
78.194530859682459
 20
781.74970268115703
 30
0.0
 40
2.0
 50
180.0
 51
270.0
  0
ARC
  5
232
  8
C4
 10
78.328999018531363
 20
788.74970268115726
 30
0.0
 40
0.9999999999998294
 50
270.00000000001302
 51
89.999999999986969
  0
ARC
  5
233
  8
C4
 10
78.194530859682459
 20
795.74970268115703
 30
0.0
 40
2.0
 50
90.0
 51
180.0
  0
LINE
  5
234
  8
C4
 10
140.3289990185315
 20
779.74970268115703
 30
0.0
 11
140.3289990185315
 21
787.74970268115703
 31
0.0
  0
ARC
  5
235
  8
C4
 10
140.32899901853091
 20
788.74970268115669
 30
0.0
 40
1.000000000000284
 50
89.99999999996092
 51
270.00000000003899
  0
LINE
  5
236
  8
C4
 10
140.3289990185315
 20
789.74970268115703
 30
0.0
 11
140.3289990185315
 21
797.74970268115703
 31
0.0
  0
LINE
  5
237
  8
C4
 10
170.3289990185315
 20
781.74970268115703
 30
0.0
 11
170.3289990185315
 21
795.74970268115703
 31
0.0
  0
CIRCLE
  5
238
  8
C4
 10
157.8289990185315
 20
788.74970268115703
 30
0.0
 40
2.0
  0
CIRCLE
  5
239
  8
C4
 10
157.8289990185315
 20
788.74970268115703
 30
0.0
 40
4.5
  0
ARC
  5
23A
  8
C4
 10
168.32899901853159
 20
781.74970268115703
 30
0.0
 40
2.0
 50
270.0
 51
0.0
  0
ARC
  5
23B
  8
C4
 10
168.32899901853159
 20
795.74970268115703
 30
0.0
 40
2.0
 50
0.0
 51
90.0
  0
LINE
  5
23C
  8
C4
 10
223.32899901853159
 20
494.74970268115692
 30
0.0
 11
223.32899901853159
 21
552.74970268115703
 31
0.0
  0
LINE
  5
23D
  8
C4
 10
225.32899901853159
 20
494.74970268115692
 30
0.0
 11
225.32899901853159
 21
552.74970268115703
 31
0.0
  0
LINE
  5
23E
  8
C4
 10
215.3289990185315
 20
489.74970268115692
 30
0.0
 11
215.3289990185315
 21
552.74970268115703
 31
0.0
  0
LINE
  5
23F
  8
C4
 10
233.32899901853159
 20
552.74970268115703
 30
0.0
 11
233.32899901853159
 21
489.74970268115692
 31
0.0
  0
LINE
  5
240
  8
C4
 10
185.3289990185315
 20
488.74970268115692
 30
0.0
 11
185.3289990185315
 21
490.74970268115692
 31
0.0
  0
LINE
  5
241
  8
C4
 10
220.82899901853159
 20
491.50200322971489
 30
0.0
 11
227.8289990185315
 21
491.50200322971489
 31
0.0
  0
ARC
  5
242
  8
C4
 10
224.3289990185315
 20
449.74970268115692
 30
0.0
 40
40.0
 50
77.161431859015821
 51
102.8385681409839
  0
ARC
  5
243
  8
C4
 10
224.3289990185315
 20
449.74970268115692
 30
0.0
 40
41.0
 50
77.319616508178953
 51
102.680383491821
  0
LINE
  5
244
  8
C4
 10
215.44080460121589
 20
488.74970268115692
 30
0.0
 11
215.3289990185315
 21
489.74970268115692
 31
0.0
  0
ARC
  5
245
  8
C4
 10
220.82899901853159
 20
490.50200322971489
 30
0.0
 40
1.0
 50
90.0
 51
162.38751922876099
  0
ARC
  5
246
  8
C4
 10
219.39931184886319
 20
490.95586950615052
 30
0.0
 40
0.5
 50
276.82213916494101
 51
342.38751922876099
  0
ARC
  5
247
  8
C4
 10
224.3289990185315
 20
493.74970268115692
 30
0.0
 40
1.0
 50
180.0
 51
0.0
  0
LINE
  5
248
  8
C4
 10
233.21719343584721
 20
488.74970268115692
 30
0.0
 11
233.32899901853159
 21
489.74970268115692
 31
0.0
  0
ARC
  5
249
  8
C4
 10
229.2586861881999
 20
490.95586950615052
 30
0.0
 40
0.5
 50
197.61248077123889
 51
263.17786083505888
  0
ARC
  5
24A
  8
C4
 10
227.8289990185315
 20
490.50200322971489
 30
0.0
 40
1.0
 50
17.61248077123896
 51
90.0
  0
LINE
  5
24B
  8
C4
 10
185.3289990185315
 20
584.74970268115703
 30
0.0
 11
185.3289990185315
 21
598.74970268115703
 31
0.0
  0
ARC
  5
24C
  8
C4
 10
183.3289990185315
 20
584.74970268115703
 30
0.0
 40
2.0
 50
270.0
 51
0.0
  0
ARC
  5
24D
  8
C4
 10
183.3289990185315
 20
598.74970268115703
 30
0.0
 40
2.0
 50
0.0
 51
90.0
  0
LINE
  5
24E
  8
C4
 10
225.32899901853159
 20
552.74970268115703
 30
0.0
 11
233.32899901853159
 21
552.74970268115703
 31
0.0
  0
LINE
  5
24F
  8
C4
 10
215.3289990185315
 20
552.74970268115703
 30
0.0
 11
223.32899901853159
 21
552.74970268115703
 31
0.0
  0
ARC
  5
250
  8
C4
 10
224.3289990185315
 20
552.74970268115703
 30
0.0
 40
1.0
 50
180.0
 51
0.0
  0
ARC
  5
251
  8
C4
 10
209.3289990185315
 20
749.74970268115703
 30
0.0
 40
1.0
 50
180.0
 51
0.0
  0
ARC
  5
252
  8
C4
 10
209.3289990185315
 20
695.74970268115703
 30
0.0
 40
1.0
 50
180.0
 51
0.0
  0
LINE
  5
253
  8
C4
 10
205.8289990185315
 20
693.502003229715
 30
0.0
 11
212.82899901853159
 21
693.502003229715
 31
0.0
  0
ARC
  5
254
  8
C4
 10
209.3289990185315
 20
651.74970268115703
 30
0.0
 40
41.0
 50
77.319616508178953
 51
102.680383491821
  0
ARC
  5
255
  8
C4
 10
209.3289990185315
 20
651.74970268115703
 30
0.0
 40
40.0
 50
77.161431859015821
 51
102.8385681409839
  0
LINE
  5
256
  8
C4
 10
200.32899901853159
 20
691.74970268115703
 30
0.0
 11
200.32899901853159
 21
749.74970268115703
 31
0.0
  0
LINE
  5
257
  8
C4
 10
208.32899901853159
 20
696.74970268115703
 30
0.0
 11
208.32899901853159
 21
749.74970268115703
 31
0.0
  0
LINE
  5
258
  8
C4
 10
200.44080460121589
 20
690.74970268115703
 30
0.0
 11
200.32899901853159
 21
691.74970268115703
 31
0.0
  0
ARC
  5
259
  8
C4
 10
205.8289990185315
 20
692.50200322971489
 30
0.0
 40
1.0
 50
90.0
 51
162.38751922876099
  0
ARC
  5
25A
  8
C4
 10
204.39931184886319
 20
692.95586950615063
 30
0.0
 40
0.5
 50
276.82213916494101
 51
342.38751922876099
  0
LINE
  5
25B
  8
C4
 10
200.32899901853159
 20
749.74970268115703
 30
0.0
 11
208.32899901853159
 21
749.74970268115703
 31
0.0
  0
LINE
  5
25C
  8
C4
 10
218.3289990185315
 20
749.74970268115703
 30
0.0
 11
218.3289990185315
 21
691.74970268115703
 31
0.0
  0
LINE
  5
25D
  8
C4
 10
210.32899901853159
 20
696.74970268115703
 30
0.0
 11
210.32899901853159
 21
749.74970268115703
 31
0.0
  0
ARC
  5
25E
  8
C4
 10
212.82899901853159
 20
692.50200322971489
 30
0.0
 40
1.0
 50
17.61248077123896
 51
90.0
  0
ARC
  5
25F
  8
C4
 10
214.2586861881999
 20
692.95586950615063
 30
0.0
 40
0.5
 50
197.61248077123889
 51
263.17786083505888
  0
LINE
  5
260
  8
C4
 10
218.21719343584721
 20
690.74970268115703
 30
0.0
 11
218.3289990185315
 21
691.74970268115703
 31
0.0
  0
LINE
  5
261
  8
C4
 10
210.32899901853159
 20
749.74970268115703
 30
0.0
 11
218.3289990185315
 21
749.74970268115703
 31
0.0
  0
ENDSEC
  0
EOF
