  0
SECTION
  2
HEADER
  9
$ACADVER
  1
AC1015
  9
$ACADMAINTVER
 70
    20
  9
$DWGCODEPAGE
  3
ANSI_932
  9
$INSBASE
 10
0.0
 20
0.0
 30
0.0
  9
$EXTMIN
 10
381.5233099645057
 20
-16.38623127105023
 30
0.0
  9
$EXTMAX
 10
1500.63125630301
 20
1424.646888107854
 30
0.0
  9
$LIMMIN
 10
0.0
 20
0.0
  9
$LIMMAX
 10
420.0
 20
297.0
  9
$ORTHOMODE
 70
     0
  9
$REGENMODE
 70
     1
  9
$FILLMODE
 70
     1
  9
$QTEXTMODE
 70
     0
  9
$MIRRTEXT
 70
     1
  9
$LTSCALE
 40
1.0
  9
$ATTMODE
 70
     1
  9
$TEXTSIZE
 40
2.5
  9
$TRACEWID
 40
1.0
  9
$TEXTSTYLE
  7
STANDARD
  9
$CLAYER
  8
0
  9
$CELTYPE
  6
ByLayer
  9
$CECOLOR
 62
   256
  9
$CELTSCALE
 40
1.0
  9
$DISPSILH
 70
     0
  9
$DIMSCALE
 40
1.0
  9
$DIMASZ
 40
2.5
  9
$DIMEXO
 40
0.625
  9
$DIMDLI
 40
3.75
  9
$DIMRND
 40
0.0
  9
$DIMDLE
 40
0.0
  9
$DIMEXE
 40
1.25
  9
$DIMTP
 40
0.0
  9
$DIMTM
 40
0.0
  9
$DIMTXT
 40
2.5
  9
$DIMCEN
 40
2.5
  9
$DIMTSZ
 40
0.0
  9
$DIMTOL
 70
     0
  9
$DIMLIM
 70
     0
  9
$DIMTIH
 70
     0
  9
$DIMTOH
 70
     0
  9
$DIMSE1
 70
     0
  9
$DIMSE2
 70
     0
  9
$DIMTAD
 70
     1
  9
$DIMZIN
 70
     8
  9
$DIMBLK
  1

  9
$DIMASO
 70
     1
  9
$DIMSHO
 70
     1
  9
$DIMPOST
  1

  9
$DIMAPOST
  1

  9
$DIMALT
 70
     0
  9
$DIMALTD
 70
     3
  9
$DIMALTF
 40
0.03937007874016
  9
$DIMLFAC
 40
1.0
  9
$DIMTOFL
 70
     1
  9
$DIMTVP
 40
0.0
  9
$DIMTIX
 70
     0
  9
$DIMSOXD
 70
     0
  9
$DIMSAH
 70
     0
  9
$DIMBLK1
  1

  9
$DIMBLK2
  1

  9
$DIMSTYLE
  2
ISO-25
  9
$DIMCLRD
 70
     0
  9
$DIMCLRE
 70
     0
  9
$DIMCLRT
 70
     0
  9
$DIMTFAC
 40
1.0
  9
$DIMGAP
 40
0.625
  9
$DIMJUST
 70
     0
  9
$DIMSD1
 70
     0
  9
$DIMSD2
 70
     0
  9
$DIMTOLJ
 70
     1
  9
$DIMTZIN
 70
     0
  9
$DIMALTZ
 70
     0
  9
$DIMALTTZ
 70
     0
  9
$DIMUPT
 70
     0
  9
$DIMDEC
 70
     4
  9
$DIMTDEC
 70
     4
  9
$DIMALTU
 70
     2
  9
$DIMALTTD
 70
     2
  9
$DIMTXSTY
  7
STANDARD
  9
$DIMAUNIT
 70
     0
  9
$DIMADEC
 70
     0
  9
$DIMALTRND
 40
0.0
  9
$DIMAZIN
 70
     0
  9
$DIMDSEP
 70
    46
  9
$DIMATFIT
 70
     3
  9
$DIMFRAC
 70
     0
  9
$DIMLDRBLK
  1

  9
$DIMLUNIT
 70
     2
  9
$DIMLWD
 70
    -2
  9
$DIMLWE
 70
    -2
  9
$DIMTMOVE
 70
     0
  9
$LUNITS
 70
     2
  9
$LUPREC
 70
     4
  9
$SKETCHINC
 40
1.0
  9
$FILLETRAD
 40
10.0
  9
$AUNITS
 70
     0
  9
$AUPREC
 70
     0
  9
$MENU
  1
.
  9
$ELEVATION
 40
0.0
  9
$PELEVATION
 40
0.0
  9
$THICKNESS
 40
0.0
  9
$LIMCHECK
 70
     0
  9
$CHAMFERA
 40
10.0
  9
$CHAMFERB
 40
10.0
  9
$CHAMFERC
 40
0.0
  9
$CHAMFERD
 40
0.0
  9
$SKPOLY
 70
     0
  9
$TDCREATE
 40
2452216.479914931
  9
$TDUCREATE
 40
2452216.104914931
  9
$TDUPDATE
 40
2457920.389943368
  9
$TDUUPDATE
 40
2457920.014943368
  9
$TDINDWG
 40
0.0210339120
  9
$TDUSRTIMER
 40
0.0210323495
  9
$USRTIMER
 70
     1
  9
$ANGBASE
 50
0.0
  9
$ANGDIR
 70
     0
  9
$PDMODE
 70
     0
  9
$PDSIZE
 40
0.0
  9
$PLINEWID
 40
0.0
  9
$SPLFRAME
 70
     0
  9
$SPLINETYPE
 70
     6
  9
$SPLINESEGS
 70
     8
  9
$HANDSEED
  5
DC9
  9
$SURFTAB1
 70
     6
  9
$SURFTAB2
 70
     6
  9
$SURFTYPE
 70
     6
  9
$SURFU
 70
     6
  9
$SURFV
 70
     6
  9
$UCSBASE
  2

  9
$UCSNAME
  2

  9
$UCSORG
 10
0.0
 20
0.0
 30
0.0
  9
$UCSXDIR
 10
1.0
 20
0.0
 30
0.0
  9
$UCSYDIR
 10
0.0
 20
1.0
 30
0.0
  9
$UCSORTHOREF
  2

  9
$UCSORTHOVIEW
 70
     0
  9
$UCSORGTOP
 10
0.0
 20
0.0
 30
0.0
  9
$UCSORGBOTTOM
 10
0.0
 20
0.0
 30
0.0
  9
$UCSORGLEFT
 10
0.0
 20
0.0
 30
0.0
  9
$UCSORGRIGHT
 10
0.0
 20
0.0
 30
0.0
  9
$UCSORGFRONT
 10
0.0
 20
0.0
 30
0.0
  9
$UCSORGBACK
 10
0.0
 20
0.0
 30
0.0
  9
$PUCSBASE
  2

  9
$PUCSNAME
  2

  9
$PUCSORG
 10
0.0
 20
0.0
 30
0.0
  9
$PUCSXDIR
 10
1.0
 20
0.0
 30
0.0
  9
$PUCSYDIR
 10
0.0
 20
1.0
 30
0.0
  9
$PUCSORTHOREF
  2

  9
$PUCSORTHOVIEW
 70
     0
  9
$PUCSORGTOP
 10
0.0
 20
0.0
 30
0.0
  9
$PUCSORGBOTTOM
 10
0.0
 20
0.0
 30
0.0
  9
$PUCSORGLEFT
 10
0.0
 20
0.0
 30
0.0
  9
$PUCSORGRIGHT
 10
0.0
 20
0.0
 30
0.0
  9
$PUCSORGFRONT
 10
0.0
 20
0.0
 30
0.0
  9
$PUCSORGBACK
 10
0.0
 20
0.0
 30
0.0
  9
$USERI1
 70
     0
  9
$USERI2
 70
     0
  9
$USERI3
 70
     0
  9
$USERI4
 70
     0
  9
$USERI5
 70
     0
  9
$USERR1
 40
0.0
  9
$USERR2
 40
0.0
  9
$USERR3
 40
0.0
  9
$USERR4
 40
0.0
  9
$USERR5
 40
0.0
  9
$WORLDVIEW
 70
     1
  9
$SHADEDGE
 70
     3
  9
$SHADEDIF
 70
    70
  9
$TILEMODE
 70
     1
  9
$MAXACTVP
 70
    64
  9
$PINSBASE
 10
0.0
 20
0.0
 30
0.0
  9
$PLIMCHECK
 70
     0
  9
$PEXTMIN
 10
1.000000000000000E+20
 20
1.000000000000000E+20
 30
1.000000000000000E+20
  9
$PEXTMAX
 10
-1.000000000000000E+20
 20
-1.000000000000000E+20
 30
-1.000000000000000E+20
  9
$PLIMMIN
 10
0.0
 20
0.0
  9
$PLIMMAX
 10
420.0
 20
297.0
  9
$UNITMODE
 70
     0
  9
$VISRETAIN
 70
     1
  9
$PLINEGEN
 70
     0
  9
$PSLTSCALE
 70
     1
  9
$TREEDEPTH
 70
  3020
  9
$CMLSTYLE
  2
Standard
  9
$CMLJUST
 70
     0
  9
$CMLSCALE
 40
1.0
  9
$PROXYGRAPHICS
 70
     1
  9
$MEASUREMENT
 70
     0
  9
$CELWEIGHT
370
    -1
  9
$ENDCAPS
280
     0
  9
$JOINSTYLE
280
     0
  9
$LWDISPLAY
290
     0
  9
$INSUNITS
 70
     0
  9
$HYPERLINKBASE
  1

  9
$STYLESHEET
  1

  9
$XEDIT
290
     1
  9
$CEPSNTYPE
380
     0
  9
$PSTYLEMODE
290
     1
  9
$FINGERPRINTGUID
  2
{CB12BC0C-7421-4D6E-A08D-720E11B66EEC}
  9
$VERSIONGUID
  2
{97374BC0-1C13-4F31-B41A-3B61493FEEE7}
  9
$EXTNAMES
290
     1
  9
$PSVPSCALE
 40
0.0
  9
$OLESTARTUP
290
     0
  0
ENDSEC
  0
SECTION
  2
CLASSES
  0
CLASS
  1
ACDBDICTIONARYWDFLT
  2
AcDbDictionaryWithDefault
  3
ObjectDBX Classes
 90
        0
280
     0
281
     0
  0
CLASS
  1
MATERIAL
  2
AcDbMaterial
  3
ObjectDBX Classes
 90
     1153
280
     0
281
     0
  0
CLASS
  1
VISUALSTYLE
  2
AcDbVisualStyle
  3
ObjectDBX Classes
 90
     4095
280
     0
281
     0
  0
CLASS
  1
SCALE
  2
AcDbScale
  3
ObjectDBX Classes
 90
     1153
280
     0
281
     0
  0
CLASS
  1
TABLESTYLE
  2
AcDbTableStyle
  3
ObjectDBX Classes
 90
     4095
280
     0
281
     0
  0
CLASS
  1
MLEADERSTYLE
  2
AcDbMLeaderStyle
  3
ACDB_MLEADERSTYLE_CLASS
 90
     4095
280
     0
281
     0
  0
CLASS
  1
DICTIONARYVAR
  2
AcDbDictionaryVar
  3
ObjectDBX Classes
 90
        0
280
     0
281
     0
  0
CLASS
  1
SORTENTSTABLE
  2
AcDbSortentsTable
  3
ObjectDBX Classes
 90
        0
280
     0
281
     0
  0
CLASS
  1
CELLSTYLEMAP
  2
AcDbCellStyleMap
  3
ObjectDBX Classes
 90
     1152
280
     0
281
     0
  0
CLASS
  1
ACDBPLACEHOLDER
  2
AcDbPlaceHolder
  3
ObjectDBX Classes
 90
        0
280
     0
281
     0
  0
CLASS
  1
LAYOUT
  2
AcDbLayout
  3
ObjectDBX Classes
 90
        0
280
     0
281
     0
  0
ENDSEC
  0
SECTION
  2
TABLES
  0
TABLE
  2
VPORT
  5
A24
330
0
100
AcDbSymbolTable
 70
     1
  0
VPORT
  5
A96
330
A24
100
AcDbSymbolTableRecord
100
AcDbViewportTableRecord
  2
*ACTIVE
 70
     0
 10
0.0
 20
0.0
 11
1.0
 21
1.0
 12
1217.09040837052
 22
543.9807239381755
 13
0.0
 23
0.0
 14
10.0
 24
10.0
 15
10.0
 25
10.0
 16
0.0
 26
0.0
 36
1.0
 17
0.0
 27
0.0
 37
0.0
 40
2128.032907343515
 41
1.941644562334217
 42
50.0
 43
0.0
 44
0.0
 50
0.0
 51
0.0
 71
     0
 72
   100
 73
     1
 74
     3
 75
     0
 76
     0
 77
     0
 78
     0
281
     0
 65
     1
110
0.0
120
0.0
130
0.0
111
1.0
121
0.0
131
0.0
112
0.0
122
1.0
132
0.0
 79
     0
146
0.0
  0
ENDTAB
  0
TABLE
  2
LTYPE
  5
A21
330
0
100
AcDbSymbolTable
 70
     2
  0
LTYPE
  5
A81
330
A21
100
AcDbSymbolTableRecord
100
AcDbLinetypeTableRecord
  2
ByBlock
 70
     0
  3

 72
    65
 73
     0
 40
0.0
  0
LTYPE
  5
A82
330
A21
100
AcDbSymbolTableRecord
100
AcDbLinetypeTableRecord
  2
ByLayer
 70
     0
  3

 72
    65
 73
     0
 40
0.0
  0
LTYPE
  5
A83
330
A21
100
AcDbSymbolTableRecord
100
AcDbLinetypeTableRecord
  2
CONTINUOUS
 70
     0
  3
Solid line
 72
    65
 73
     0
 40
0.0
  0
ENDTAB
  0
TABLE
  2
LAYER
  5
A1E
330
0
100
AcDbSymbolTable
 70
     3
  0
LAYER
  5
A7B
102
{ACAD_XDICTIONARY
360
D22
102
}
330
A1E
100
AcDbSymbolTableRecord
100
AcDbLayerTableRecord
  2
0
 70
     0
 62
     7
  6
CONTINUOUS
370
    -3
390
A2B
  0
LAYER
  5
A97
102
{ACAD_XDICTIONARY
360
D24
102
}
330
A1E
100
AcDbSymbolTableRecord
100
AcDbLayerTableRecord
  2
1外形線
 70
     0
 62
     3
  6
CONTINUOUS
370
    -3
390
A2B
  0
LAYER
  5
A98
102
{ACAD_XDICTIONARY
360
D26
102
}
330
A1E
100
AcDbSymbolTableRecord
100
AcDbLayerTableRecord
  2
C4
 70
     0
 62
     3
  6
CONTINUOUS
370
    -3
390
A2B
  0
ENDTAB
  0
TABLE
  2
STYLE
  5
A1F
330
0
100
AcDbSymbolTable
 70
     3
  0
STYLE
  5
A7C
330
A1F
100
AcDbSymbolTableRecord
100
AcDbTextStyleTableRecord
  2
STANDARD
 70
     0
 40
0.0
 41
1.0
 50
0.0
 71
     0
 42
2.5
  3
txt
  4

  0
STYLE
  5
A80
330
A1F
100
AcDbSymbolTableRecord
100
AcDbTextStyleTableRecord
  2
Annotative
 70
     0
 40
0.0
 41
1.0
 50
0.0
 71
     0
 42
0.2
  3
txt
  4

1001
AcadAnnotative
1000
AnnotativeData
1002
{
1070
     1
1070
     1
1002
}
  0
STYLE
  5
A99
330
A1F
100
AcDbSymbolTableRecord
100
AcDbTextStyleTableRecord
  2
KANJI
 70
     0
 40
0.0
 41
1.0
 50
0.0
 71
     0
 42
2.5
  3
simplex.shx
  4
extfont.shx
  0
ENDTAB
  0
TABLE
  2
VIEW
  5
A22
330
0
100
AcDbSymbolTable
 70
     0
  0
ENDTAB
  0
TABLE
  2
UCS
  5
A23
330
0
100
AcDbSymbolTable
 70
     0
  0
ENDTAB
  0
TABLE
  2
APPID
  5
A25
330
0
100
AcDbSymbolTable
 70
     4
  0
APPID
  5
A7D
330
A25
100
AcDbSymbolTableRecord
100
AcDbRegAppTableRecord
  2
ACAD
 70
     0
  0
APPID
  5
A84
330
A25
100
AcDbSymbolTableRecord
100
AcDbRegAppTableRecord
  2
AcadAnnotative
 70
     0
  0
APPID
  5
B01
330
A25
100
AcDbSymbolTableRecord
100
AcDbRegAppTableRecord
  2
ACAD_EXEMPT_FROM_CAD_STANDARDS
 70
     0
  0
APPID
  5
DC4
330
A25
100
AcDbSymbolTableRecord
100
AcDbRegAppTableRecord
  2
ACAD_MLEADERVER
 70
     0
  0
ENDTAB
  0
TABLE
  2
DIMSTYLE
  5
A26
330
0
100
AcDbSymbolTable
 70
     4
100
AcDbDimStyleTable
 71
     1
340
A9A
  0
DIMSTYLE
105
A7E
330
A26
100
AcDbSymbolTableRecord
100
AcDbDimStyleTableRecord
  2
STANDARD
 70
     0
274
     3
279
     2
284
     8
285
     8
286
     8
340
A7C
  0
DIMSTYLE
105
A7F
330
A26
100
AcDbSymbolTableRecord
100
AcDbDimStyleTableRecord
  2
Annotative
 70
     0
340
A7C
1001
AcadAnnotative
1000
AnnotativeData
1002
{
1070
     1
1070
     1
1002
}
  0
DIMSTYLE
105
A9A
330
A26
100
AcDbSymbolTableRecord
100
AcDbDimStyleTableRecord
  2
ISO-25
 70
     0
 41
2.5
 42
0.625
 43
3.75
 44
1.25
 73
     0
 74
     0
 77
     1
 78
     8
140
2.5
141
2.5
143
0.03937007874016
147
0.625
171
     3
172
     1
274
     3
279
     2
284
     8
285
     8
286
     8
340
A7C
  0
ENDTAB
  0
TABLE
  2
BLOCK_RECORD
  5
A1D
330
0
100
AcDbSymbolTable
 70
     5
  0
BLOCK_RECORD
  5
A92
102
{ACAD_XDICTIONARY
360
B90
102
}
330
A1D
100
AcDbSymbolTableRecord
100
AcDbBlockTableRecord
  2
*Model_Space
340
A95
  0
BLOCK_RECORD
  5
A8E
330
A1D
100
AcDbSymbolTableRecord
100
AcDbBlockTableRecord
  2
*Paper_Space
340
A91
  0
BLOCK_RECORD
  5
A9E
330
A1D
100
AcDbSymbolTableRecord
100
AcDbBlockTableRecord
  2
$MODEL_SPACE
340
0
  0
BLOCK_RECORD
  5
AA0
330
A1D
100
AcDbSymbolTableRecord
100
AcDbBlockTableRecord
  2
$PAPER_SPACE
340
0
  0
BLOCK_RECORD
  5
AA2
330
A1D
100
AcDbSymbolTableRecord
100
AcDbBlockTableRecord
  2
2
340
0
  0
BLOCK_RECORD
  5
AA4
330
A1D
100
AcDbSymbolTableRecord
100
AcDbBlockTableRecord
  2
*U3
340
0
102
{BLKREFS
331
2C
102
}
  0
ENDTAB
  0
ENDSEC
  0
SECTION
  2
BLOCKS
  0
BLOCK
  5
A93
330
A92
100
AcDbEntity
  8
0
100
AcDbBlockBegin
  2
*Model_Space
 70
     0
 10
0.0
 20
0.0
 30
0.0
  3
*Model_Space
  1

  0
ENDBLK
  5
A94
330
A92
100
AcDbEntity
  8
0
100
AcDbBlockEnd
  0
BLOCK
  5
A8F
330
A8E
100
AcDbEntity
 67
     1
  8
0
100
AcDbBlockBegin
  2
*Paper_Space
 70
     0
 10
0.0
 20
0.0
 30
0.0
  3
*Paper_Space
  1

  0
ENDBLK
  5
A90
330
A8E
100
AcDbEntity
 67
     1
  8
0
100
AcDbBlockEnd
  0
BLOCK
  5
A9F
330
A9E
100
AcDbEntity
  8
0
100
AcDbBlockBegin
  2
$MODEL_SPACE
 70
     0
 10
0.0
 20
0.0
 30
0.0
  3
$MODEL_SPACE
  1

  0
ENDBLK
  5
21
330
A9E
100
AcDbEntity
  8
0
100
AcDbBlockEnd
  0
BLOCK
  5
AA1
330
AA0
100
AcDbEntity
  8
0
100
AcDbBlockBegin
  2
$PAPER_SPACE
 70
     0
 10
0.0
 20
0.0
 30
0.0
  3
$PAPER_SPACE
  1

  0
ENDBLK
  5
1D
330
AA0
100
AcDbEntity
  8
0
100
AcDbBlockEnd
  0
BLOCK
  5
AA3
330
AA2
100
AcDbEntity
  8
0
100
AcDbBlockBegin
  2
2
 70
     0
 10
0.0
 20
0.0
 30
0.0
  3
2
  1

  0
INSERT
  5
2C
330
AA2
100
AcDbEntity
  8
0
  6
Continuous
100
AcDbBlockReference
  2
*U3
 10
0.0
 20
0.0
 30
0.0
1001
ACAD
1002
{
1000
R14_HATCH_DATA
1000
2C
1011
1.0
1021
0.0
1031
0.0
1011
0.0
1021
1.0
1031
0.0
1011
0.0
1021
0.0
1031
1.0
1040
0.0
1010
0.0
1020
0.0
1030
1.0
1000
SOLID
1070
     1
1070
     1
1071
        1
1071
        7
1070
     0
1070
     1
1071
        3
1040
0.0000000000000284
1040
0.0
1040
-0.899999999998343
1040
0.2411542731875897
1040
-0.8999999999983572
1040
-0.2411542731875613
1071
        3
1005
2F
1005
2D
1005
30
1070
     0
1070
     1
1040
0.0028941747346077
1071
        1
1040
-0.5303136156475148
1040
-0.0796654556697263
1040
0.0
1002
}
  0
LINE
  5
2D
330
AA2
100
AcDbEntity
  8
0
100
AcDbLine
 10
-0.8999999999983572
 20
0.2411542731879876
 30
0.0
 11
-0.8999999999983572
 21
-0.2411542731880445
 31
0.0
  0
LINE
  5
2E
330
AA2
100
AcDbEntity
  8
0
100
AcDbLine
 10
-0.9999999999983517
 20
0.0
 30
0.0
 11
0.0
 21
0.0
 31
0.0
  0
LINE
  5
2F
330
AA2
100
AcDbEntity
  8
0
100
AcDbLine
 10
-0.8999999999984423
 20
0.2411542731875897
 30
0.0
 11
0.0
 21
0.0
 31
0.0
  0
LINE
  5
30
330
AA2
100
AcDbEntity
  8
0
100
AcDbLine
 10
-0.8999999999984423
 20
-0.2411542731875897
 30
0.0
 11
0.0
 21
0.0
 31
0.0
  0
ENDBLK
  5
32
330
AA2
100
AcDbEntity
  8
0
100
AcDbBlockEnd
  0
BLOCK
  5
AA5
330
AA4
100
AcDbEntity
  8
0
100
AcDbBlockBegin
  2
*U3
 70
     1
 10
0.0
 20
0.0
 30
0.0
  3
*U3
  1

  0
SOLID
  5
A18
330
AA4
100
AcDbEntity
  8
0
  6
Continuous
100
AcDbTrace
 10
-0.5999999999988905
 20
0.0000000000000095
 30
0.0
 11
0.0000000000000284
 21
0.0
 31
0.0
 12
-0.899999999998343
 22
0.2411542731875897
 32
0.0
 13
-0.899999999998343
 23
0.2411542731875897
 33
0.0
  0
SOLID
  5
A19
330
AA4
100
AcDbEntity
  8
0
  6
Continuous
100
AcDbTrace
 10
-0.5999999999988905
 20
0.0000000000000095
 30
0.0
 11
-0.899999999998343
 21
0.2411542731875897
 31
0.0
 12
-0.8999999999983572
 22
-0.2411542731875613
 32
0.0
 13
-0.8999999999983572
 23
-0.2411542731875613
 33
0.0
  0
SOLID
  5
A1A
330
AA4
100
AcDbEntity
  8
0
  6
Continuous
100
AcDbTrace
 10
-0.5999999999988905
 20
0.0000000000000095
 30
0.0
 11
-0.8999999999983572
 21
-0.2411542731875613
 31
0.0
 12
0.0000000000000284
 22
0.0
 32
0.0
 13
0.0000000000000284
 23
0.0
 33
0.0
  0
ENDBLK
  5
A1C
330
AA4
100
AcDbEntity
  8
0
100
AcDbBlockEnd
  0
ENDSEC
  0
SECTION
  2
ENTITIES
  0
LINE
  5
526
330
A92
100
AcDbEntity
  8
1外形線
100
AcDbLine
 10
381.5233099645057
 20
993.4016604099975
 30
0.0
 11
1500.63125630301
 21
993.4016604099975
 31
0.0
  0
LINE
  5
527
330
A92
100
AcDbEntity
  8
1外形線
100
AcDbLine
 10
381.5233099645057
 20
1424.646888107854
 30
0.0
 11
1200.61854081814
 21
1424.646888107854
 31
0.0
  0
LINE
  5
528
330
A92
100
AcDbEntity
  8
1外形線
100
AcDbLine
 10
381.5233099645057
 20
-16.38623127105023
 30
0.0
 11
1200.61854081814
 21
-16.38623127105023
 31
0.0
  0
LINE
  5
529
330
A92
100
AcDbEntity
  8
1外形線
100
AcDbLine
 10
381.5233099645057
 20
515.6879213433614
 30
0.0
 11
1200.61854081814
 21
515.6879213433614
 31
0.0
  0
LINE
  5
52A
330
A92
100
AcDbEntity
  8
1外形線
100
AcDbLine
 10
381.5233099645057
 20
545.6879213433613
 30
0.0
 11
1500.63125630301
 21
545.6879213433613
 31
0.0
  0
LINE
  5
52B
330
A92
100
AcDbEntity
  8
1外形線
100
AcDbLine
 10
381.5233099645057
 20
1023.401660409997
 30
0.0
 11
1200.61854081814
 21
1023.401660409997
 31
0.0
  0
ARC
  5
52C
330
A92
100
AcDbEntity
  8
C4
100
AcDbCircle
 10
714.5233099645056
 20
754.7879213433618
 30
0.0
 40
25.7
100
AcDbArc
 50
270.0
 51
0.0
  0
ARC
  5
52D
330
A92
100
AcDbEntity
  8
C4
100
AcDbCircle
 10
715.2233099645057
 20
755.0879213433615
 30
0.0
 40
22.0
100
AcDbArc
 50
270.0
 51
0.0
  0
LINE
  5
52E
330
A92
100
AcDbEntity
  8
C4
100
AcDbLine
 10
702.2233099645055
 20
692.5879213433618
 30
0.0
 11
740.2233099645058
 21
692.5879213433618
 31
0.0
  0
LINE
  5
52F
330
A92
100
AcDbEntity
  8
C4
100
AcDbLine
 10
662.5233099645055
 20
683.5879213433615
 30
0.0
 11
740.2233099645058
 21
683.5879213433615
 31
0.0
  0
ARC
  5
530
330
A92
100
AcDbEntity
  8
C4
100
AcDbCircle
 10
715.2233099645057
 20
812.0879213433616
 30
0.0
 40
22.0
100
AcDbArc
 50
0.0
 51
90.0
  0
ARC
  5
531
330
A92
100
AcDbEntity
  8
C4
100
AcDbCircle
 10
714.5233099645058
 20
812.3879213433617
 30
0.0
 40
25.7
100
AcDbArc
 50
0.0
 51
90.0
  0
LINE
  5
532
330
A92
100
AcDbEntity
  8
1外形線
100
AcDbLine
 10
381.5233099645057
 20
993.4016604099975
 30
0.0
 11
381.5233099645057
 21
545.6879213433613
 31
0.0
  0
ARC
  5
533
330
A92
100
AcDbEntity
  8
C4
100
AcDbCircle
 10
690.7233099645057
 20
809.0879213433616
 30
0.0
 40
25.0
100
AcDbArc
 50
90.0
 51
180.0
  0
ARC
  5
534
330
A92
100
AcDbEntity
  8
C4
100
AcDbCircle
 10
690.7233099645057
 20
808.8879213433617
 30
0.0
 40
29.19999999999999
100
AcDbArc
 50
90.0
 51
180.0
  0
LINE
  5
535
330
A92
100
AcDbEntity
  8
C4
100
AcDbLine
 10
622.5233099645057
 20
837.0879213433616
 30
0.0
 11
622.5233099645057
 21
730.0879213433614
 31
0.0
  0
LINE
  5
536
330
A92
100
AcDbEntity
  8
C4
100
AcDbLine
 10
631.5233099645055
 20
730.0879213433614
 30
0.0
 11
631.5233099645055
 21
837.0879213433616
 31
0.0
  0
LINE
  5
537
330
A92
100
AcDbEntity
  8
C4
100
AcDbLine
 10
431.5233099645057
 20
730.0879213433614
 30
0.0
 11
431.5233099645057
 21
837.0879213433616
 31
0.0
  0
LINE
  5
538
330
A92
100
AcDbEntity
  8
C4
100
AcDbLine
 10
440.5233099645057
 20
837.0879213433616
 30
0.0
 11
440.5233099645057
 21
730.0879213433614
 31
0.0
  0
LINE
  5
539
330
A92
100
AcDbEntity
  8
1外形線
100
AcDbLine
 10
381.5233099645057
 20
515.6879213433614
 30
0.0
 11
381.5233099645057
 21
-16.38623127105018
 31
0.0
  0
LINE
  5
53A
330
A92
100
AcDbEntity
  8
C4
100
AcDbLine
 10
681.5233099645061
 20
336.5137687289495
 30
0.0
 11
681.5233099645061
 21
190.8137687289496
 31
0.0
  0
LINE
  5
53B
330
A92
100
AcDbEntity
  8
C4
100
AcDbLine
 10
673.5233099645061
 20
190.5137687289499
 30
0.0
 11
673.5233099645061
 21
336.8137687289496
 31
0.0
  0
LINE
  5
53C
330
A92
100
AcDbEntity
  8
C4
100
AcDbLine
 10
439.5233099645057
 20
190.5137687289499
 30
0.0
 11
439.5233099645057
 21
336.8137687289496
 31
0.0
  0
LINE
  5
53D
330
A92
100
AcDbEntity
  8
C4
100
AcDbLine
 10
431.5233099645057
 20
336.5137687289495
 30
0.0
 11
431.5233099645057
 21
190.8137687289496
 31
0.0
  0
LINE
  5
53E
330
A92
100
AcDbEntity
  8
C4
100
AcDbLine
 10
476.8138997608396
 20
190.3183195559627
 30
0.0
 11
471.1645266303306
 21
184.6689464254537
 31
0.0
  0
ARC
  5
53F
330
A92
100
AcDbEntity
  8
C4
100
AcDbCircle
 10
453.3733099645056
 20
160.5137687289499
 30
0.0
 40
32.25360382050145
100
AcDbArc
 50
53.02003076543641
 51
90.0
  0
ARC
  5
540
330
A92
100
AcDbEntity
  8
C4
100
AcDbCircle
 10
453.3733099645056
 20
160.5137687289499
 30
0.0
 40
37.67941974845966
100
AcDbArc
 50
51.85912608491991
 51
90.0
  0
ARC
  5
541
330
A92
100
AcDbEntity
  8
C4
100
AcDbCircle
 10
453.3733099645056
 20
160.5137687289499
 30
0.0
 40
30.0
100
AcDbArc
 50
0.0
 51
90.0
  0
ARC
  5
542
330
A92
100
AcDbEntity
  8
C4
100
AcDbCircle
 10
453.3733099645056
 20
160.5137687289499
 30
0.0
 40
45.54595245694011
100
AcDbArc
 50
0.0
 51
90.0
  0
LINE
  5
543
330
A92
100
AcDbEntity
  8
C4
100
AcDbLine
 10
484.5108024295371
 20
89.32980542816309
 30
0.0
 11
439.5233099645055
 21
89.32980542816309
 31
0.0
  0
LINE
  5
544
330
A92
100
AcDbEntity
  8
C4
100
AcDbLine
 10
489.6558542038174
 20
97.25367778130888
 30
0.0
 11
439.5233099645052
 21
97.25367778130888
 31
0.0
  0
LINE
  5
545
330
A92
100
AcDbEntity
  8
C4
100
AcDbLine
 10
497.2236960892635
 20
102.63380818617
 30
0.0
 11
439.5233099645055
 21
102.63380818617
 31
0.0
  0
LINE
  5
546
330
A92
100
AcDbEntity
  8
C4
100
AcDbLine
 10
439.5233099645055
 20
104.222454861052
 30
0.0
 11
501.7987887074153
 21
104.222454861052
 31
0.0
  0
LINE
  5
547
330
A92
100
AcDbEntity
  8
C4
100
AcDbLine
 10
490.1679184499683
 20
27.17417012770108
 30
0.0
 11
439.5233099645055
 21
27.17417012770108
 31
0.0
  0
LINE
  5
548
330
A92
100
AcDbEntity
  8
C4
100
AcDbLine
 10
484.1320103613462
 20
36.60775266820616
 30
0.0
 11
439.5233099645052
 21
36.60775266820616
 31
0.0
  0
LINE
  5
549
330
A92
100
AcDbEntity
  8
C4
100
AcDbLine
 10
499.6102908970404
 20
21.35839511810678
 30
0.0
 11
439.5233099645055
 21
21.35839511810678
 31
0.0
  0
LINE
  5
54A
330
A92
100
AcDbEntity
  8
C4
100
AcDbLine
 10
431.5233099645054
 20
20.02245486105227
 30
0.0
 11
556.5233099645058
 21
20.02245486105181
 31
0.0
  0
LINE
  5
54B
330
A92
100
AcDbEntity
  8
C4
100
AcDbLine
 10
483.3733099645058
 20
71.12245486105218
 30
0.0
 11
431.5233099645057
 21
71.12245486105627
 31
0.0
  0
LINE
  5
54C
330
A92
100
AcDbEntity
  8
C4
100
AcDbLine
 10
483.3733099645058
 20
65.12245486105218
 30
0.0
 11
431.5233099645057
 21
65.12245486105218
 31
0.0
  0
LINE
  5
54D
330
A92
100
AcDbEntity
  8
C4
100
AcDbLine
 10
431.5233099645057
 20
68.12245486105218
 30
0.0
 11
485.2233099645057
 21
68.12245486105218
 31
0.0
  0
LINE
  5
54E
330
A92
100
AcDbEntity
  8
C4
100
AcDbLine
 10
431.5233099645057
 20
103.9224548610523
 30
0.0
 11
431.5233099645054
 21
20.02245486105227
 31
0.0
  0
LINE
  5
54F
330
A92
100
AcDbEntity
  8
C4
100
AcDbLine
 10
439.5233099645052
 20
65.12245486105218
 30
0.0
 11
439.5233099645055
 21
20.02245486105227
 31
0.0
  0
LINE
  5
550
330
A92
100
AcDbEntity
  8
C4
100
AcDbLine
 10
439.5233099645055
 20
104.222454861052
 30
0.0
 11
439.5233099645052
 21
71.12245486105582
 31
0.0
  0
ARC
  5
551
330
A92
100
AcDbEntity
  8
C4
100
AcDbCircle
 10
438.5693707630886
 20
103.9224548610519
 30
0.0
 40
1.0
100
AcDbArc
 50
17.45760312371893
 51
89.99999999999674
  0
ARC
  5
552
330
A92
100
AcDbEntity
  8
C4
100
AcDbCircle
 10
432.5233099645057
 20
103.9224548610523
 30
0.0
 40
1.0
100
AcDbArc
 50
90.0
 51
180.0
  0
LINE
  5
553
330
A92
100
AcDbEntity
  8
C4
100
AcDbLine
 10
432.5233099645057
 20
104.9224548610523
 30
0.0
 11
438.5693707630886
 21
104.9224548610519
 31
0.0
  0
LINE
  5
554
330
A92
100
AcDbEntity
  8
C4
100
AcDbLine
 10
453.3733099645056
 20
192.7673725494512
 30
0.0
 11
439.5233099645057
 21
192.7673725494512
 31
0.0
  0
LINE
  5
555
330
A92
100
AcDbEntity
  8
C4
100
AcDbLine
 10
439.5233099645057
 20
190.5137687289499
 30
0.0
 11
453.3733099645056
 21
190.5137687289499
 31
0.0
  0
ARC
  5
556
330
A92
100
AcDbEntity
  8
C4
100
AcDbCircle
 10
438.5693707630888
 20
190.8137687289496
 30
0.0
 40
1.0
100
AcDbArc
 50
270.0
 51
342.542396876281
  0
ARC
  5
557
330
A92
100
AcDbEntity
  8
C4
100
AcDbCircle
 10
432.5233099645057
 20
190.8137687289496
 30
0.0
 40
1.0
100
AcDbArc
 50
180.0
 51
270.0
  0
LINE
  5
558
330
A92
100
AcDbEntity
  8
C4
100
AcDbLine
 10
432.5233099645057
 20
189.8137687289497
 30
0.0
 11
438.5233099645057
 21
189.8137687289497
 31
0.0
  0
LINE
  5
559
330
A92
100
AcDbEntity
  8
C4
100
AcDbLine
 10
453.3733099645056
 20
198.1931884774096
 30
0.0
 11
439.5233099645057
 21
198.1931884774096
 31
0.0
  0
LINE
  5
55A
330
A92
100
AcDbEntity
  8
C4
100
AcDbLine
 10
453.3733099645056
 20
206.05972118589
 30
0.0
 11
439.5233099645057
 21
206.05972118589
 31
0.0
  0
LINE
  5
55B
330
A92
100
AcDbEntity
  8
C4
100
AcDbLine
 10
681.5233099645058
 20
103.9224548610523
 30
0.0
 11
681.5233099645058
 21
20.02245486105227
 31
0.0
  0
LINE
  5
55C
330
A92
100
AcDbEntity
  8
C4
100
AcDbLine
 10
673.5233099645058
 20
65.12245486105218
 30
0.0
 11
673.5233099645058
 21
20.02245486105227
 31
0.0
  0
ARC
  5
55D
330
A92
100
AcDbEntity
  8
C4
100
AcDbCircle
 10
605.3733099645053
 20
45.02245486105226
 30
0.0
 40
25.0
100
AcDbArc
 50
270.0
 51
0.0
  0
ARC
  5
55E
330
A92
100
AcDbEntity
  8
C4
100
AcDbCircle
 10
601.5233099645058
 20
47.12245486105217
 30
0.0
 40
25.0
100
AcDbArc
 50
270.0
 51
0.0
  0
ARC
  5
55F
330
A92
100
AcDbEntity
  8
C4
100
AcDbCircle
 10
507.6733099645055
 20
45.02245486105226
 30
0.0
 40
25.0
100
AcDbArc
 50
180.0
 51
270.0
  0
ARC
  5
560
330
A92
100
AcDbEntity
  8
C4
100
AcDbCircle
 10
511.5233099645059
 20
47.12245486105217
 30
0.0
 40
25.0
100
AcDbArc
 50
180.0
 51
270.0
  0
LINE
  5
561
330
A92
100
AcDbEntity
  8
C4
100
AcDbLine
 10
598.5233099645058
 20
25.12245486105218
 30
0.0
 11
594.5233099645058
 21
25.12245486105218
 31
0.0
  0
LINE
  5
562
330
A92
100
AcDbEntity
  8
C4
100
AcDbLine
 10
601.5233099645058
 20
22.12245486105218
 30
0.0
 11
556.5233099645058
 21
22.12245486105218
 31
0.0
  0
LINE
  5
563
330
A92
100
AcDbEntity
  8
C4
100
AcDbLine
 10
681.5233099645058
 20
20.02245486105227
 30
0.0
 11
556.5233099645058
 21
20.02245486105181
 31
0.0
  0
LINE
  5
564
330
A92
100
AcDbEntity
  8
C4
100
AcDbLine
 10
554.5233099645058
 20
24.62245486105218
 30
0.0
 11
518.5233099645058
 21
24.62245486105218
 31
0.0
  0
LINE
  5
565
330
A92
100
AcDbEntity
  8
C4
100
AcDbLine
 10
511.5233099645059
 20
22.12245486105218
 30
0.0
 11
556.5233099645058
 21
22.12245486105218
 31
0.0
  0
LINE
  5
566
330
A92
100
AcDbEntity
  8
C4
100
AcDbLine
 10
514.5233099645058
 20
24.62245486105218
 30
0.0
 11
500.626062605654
 21
24.62245486105218
 31
0.0
  0
LINE
  5
567
330
A92
100
AcDbEntity
  8
C4
100
AcDbLine
 10
514.5233099645058
 20
25.12245486105218
 30
0.0
 11
518.5233099645058
 21
25.12245486105218
 31
0.0
  0
LINE
  5
568
330
A92
100
AcDbEntity
  8
C4
100
AcDbLine
 10
514.5233099645058
 20
25.12245486105218
 30
0.0
 11
514.5233099645058
 21
22.12245486105218
 31
0.0
  0
LINE
  5
569
330
A92
100
AcDbEntity
  8
C4
100
AcDbLine
 10
518.5233099645058
 20
25.12245486105218
 30
0.0
 11
518.5233099645058
 21
22.12245486105218
 31
0.0
  0
LINE
  5
56A
330
A92
100
AcDbEntity
  8
C4
100
AcDbLine
 10
558.5233099645058
 20
24.62245486105218
 30
0.0
 11
594.5233099645058
 21
24.62245486105218
 31
0.0
  0
LINE
  5
56B
330
A92
100
AcDbEntity
  8
C4
100
AcDbLine
 10
558.5233099645058
 20
25.12245486105218
 30
0.0
 11
556.5233099645058
 21
25.12245486105218
 31
0.0
  0
LINE
  5
56C
330
A92
100
AcDbEntity
  8
C4
100
AcDbLine
 10
558.5233099645058
 20
25.12245486105218
 30
0.0
 11
556.5233099645058
 21
25.12245486105218
 31
0.0
  0
LINE
  5
56D
330
A92
100
AcDbEntity
  8
C4
100
AcDbLine
 10
554.5233099645058
 20
25.12245486105218
 30
0.0
 11
556.5233099645058
 21
25.12245486105218
 31
0.0
  0
LINE
  5
56E
330
A92
100
AcDbEntity
  8
C4
100
AcDbLine
 10
554.5233099645058
 20
25.12245486105218
 30
0.0
 11
556.5233099645058
 21
25.12245486105218
 31
0.0
  0
LINE
  5
56F
330
A92
100
AcDbEntity
  8
C4
100
AcDbLine
 10
558.5233099645058
 20
25.12245486105218
 30
0.0
 11
558.5233099645058
 21
22.12245486105218
 31
0.0
  0
LINE
  5
570
330
A92
100
AcDbEntity
  8
C4
100
AcDbLine
 10
558.5233099645058
 20
25.12245486105218
 30
0.0
 11
558.5233099645058
 21
22.12245486105218
 31
0.0
  0
LINE
  5
571
330
A92
100
AcDbEntity
  8
C4
100
AcDbLine
 10
554.5233099645058
 20
25.12245486105218
 30
0.0
 11
554.5233099645058
 21
22.12245486105218
 31
0.0
  0
LINE
  5
572
330
A92
100
AcDbEntity
  8
C4
100
AcDbLine
 10
554.5233099645058
 20
25.12245486105218
 30
0.0
 11
554.5233099645058
 21
22.12245486105218
 31
0.0
  0
LINE
  5
573
330
A92
100
AcDbEntity
  8
C4
100
AcDbLine
 10
594.5233099645058
 20
25.12245486105218
 30
0.0
 11
594.5233099645058
 21
22.12245486105218
 31
0.0
  0
LINE
  5
574
330
A92
100
AcDbEntity
  8
C4
100
AcDbLine
 10
628.9146095676654
 20
36.60775266820616
 30
0.0
 11
673.5233099645058
 21
36.60775266820616
 31
0.0
  0
LINE
  5
575
330
A92
100
AcDbEntity
  8
C4
100
AcDbLine
 10
622.8787014790429
 20
27.17417012770108
 30
0.0
 11
673.5233099645058
 21
27.17417012770108
 31
0.0
  0
LINE
  5
576
330
A92
100
AcDbEntity
  8
C4
100
AcDbLine
 10
613.4363290319709
 20
21.35839511810678
 30
0.0
 11
673.5233099645058
 21
21.35839511810678
 31
0.0
  0
LINE
  5
577
330
A92
100
AcDbEntity
  8
C4
100
AcDbLine
 10
598.5233099645058
 20
24.62245486105218
 30
0.0
 11
612.4205573233577
 21
24.62245486105218
 31
0.0
  0
LINE
  5
578
330
A92
100
AcDbEntity
  8
C4
100
AcDbLine
 10
598.5233099645058
 20
25.12245486105218
 30
0.0
 11
598.5233099645058
 21
22.12245486105218
 31
0.0
  0
LINE
  5
579
330
A92
100
AcDbEntity
  8
C4
100
AcDbLine
 10
629.6733099645061
 20
146.5137687289499
 30
0.0
 11
556.5233099645058
 21
146.5137687289499
 31
0.0
  0
LINE
  5
57A
330
A92
100
AcDbEntity
  8
C4
100
AcDbLine
 10
556.5233099645058
 20
138.5137687289499
 30
0.0
 11
629.3733099645059
 21
138.5137687289499
 31
0.0
  0
LINE
  5
57B
330
A92
100
AcDbEntity
  8
C4
100
AcDbLine
 10
556.5233099645058
 20
104.9224548610523
 30
0.0
 11
605.3733099645053
 21
104.9224548610523
 31
0.0
  0
LINE
  5
57C
330
A92
100
AcDbEntity
  8
C4
100
AcDbLine
 10
556.5233099645058
 20
102.1224548610521
 30
0.0
 11
601.5233099645058
 21
102.1224548610521
 31
0.0
  0
LINE
  5
57D
330
A92
100
AcDbEntity
  8
C4
100
AcDbLine
 10
482.6733099645057
 20
139.5137687289499
 30
0.0
 11
482.6733099645057
 21
145.5137687289498
 31
0.0
  0
LINE
  5
57E
330
A92
100
AcDbEntity
  8
C4
100
AcDbLine
 10
556.5233099645058
 20
102.1224548610521
 30
0.0
 11
511.5233099645059
 21
102.1224548610521
 31
0.0
  0
LINE
  5
57F
330
A92
100
AcDbEntity
  8
C4
100
AcDbLine
 10
556.5233099645058
 20
104.9224548610523
 30
0.0
 11
507.6733099645055
 21
104.9224548610523
 31
0.0
  0
LINE
  5
580
330
A92
100
AcDbEntity
  8
C4
100
AcDbLine
 10
556.5233099645058
 20
138.5137687289499
 30
0.0
 11
483.6733099645057
 21
138.5137687289499
 31
0.0
  0
ARC
  5
581
330
A92
100
AcDbEntity
  8
C4
100
AcDbCircle
 10
507.6733099645055
 20
79.92245486105236
 30
0.0
 40
25.0
100
AcDbArc
 50
90.0
 51
180.0
  0
ARC
  5
582
330
A92
100
AcDbEntity
  8
C4
100
AcDbCircle
 10
511.5233099645059
 20
77.12245486105217
 30
0.0
 40
25.0
100
AcDbArc
 50
90.0
 51
180.0
  0
LINE
  5
583
330
A92
100
AcDbEntity
  8
C4
100
AcDbLine
 10
482.6733099645057
 20
79.92245486105236
 30
0.0
 11
482.6733099645057
 21
71.12245486105218
 31
0.0
  0
LINE
  5
584
330
A92
100
AcDbEntity
  8
C4
100
AcDbLine
 10
486.5233099645056
 20
77.12245486105217
 30
0.0
 11
486.5233099645056
 21
47.12245486105217
 31
0.0
  0
LINE
  5
585
330
A92
100
AcDbEntity
  8
C4
100
AcDbLine
 10
485.2233099645057
 20
68.12245486105218
 30
0.0
 11
485.2233099645057
 21
73.12245486105218
 31
0.0
  0
LINE
  5
586
330
A92
100
AcDbEntity
  8
C4
100
AcDbLine
 10
484.1733099645058
 20
68.12245486105218
 30
0.0
 11
483.3733099645058
 21
65.12245486105218
 31
0.0
  0
LINE
  5
587
330
A92
100
AcDbEntity
  8
C4
100
AcDbLine
 10
484.1733099645058
 20
68.12245486105218
 30
0.0
 11
483.3733099645058
 21
71.12245486105218
 31
0.0
  0
LINE
  5
588
330
A92
100
AcDbEntity
  8
C4
100
AcDbLine
 10
482.6733099645057
 20
65.12245486105218
 30
0.0
 11
482.6733099645054
 21
45.02245486105226
 31
0.0
  0
LINE
  5
589
330
A92
100
AcDbEntity
  8
C4
100
AcDbLine
 10
485.2233099645057
 20
73.12245486105218
 30
0.0
 11
486.5233099645056
 21
73.12245486105218
 31
0.0
  0
ARC
  5
58A
330
A92
100
AcDbEntity
  8
C4
100
AcDbCircle
 10
483.6733099645057
 20
139.5137687289499
 30
0.0
 40
1.0
100
AcDbArc
 50
180.0
 51
270.0
  0
LINE
  5
58B
330
A92
100
AcDbEntity
  8
C4
100
AcDbLine
 10
483.3733099645056
 20
146.5137687289499
 30
0.0
 11
556.5233099645058
 21
146.5137687289499
 31
0.0
  0
ARC
  5
58C
330
A92
100
AcDbEntity
  8
C4
100
AcDbCircle
 10
453.3733099645056
 20
160.5137687289499
 30
0.0
 40
37.67941974845966
100
AcDbArc
 50
0.0
 51
38.14087391508291
  0
ARC
  5
58D
330
A92
100
AcDbEntity
  8
C4
100
AcDbCircle
 10
453.3733099645056
 20
160.5137687289499
 30
0.0
 40
32.25360382050145
100
AcDbArc
 50
0.0
 51
36.97996923455568
  0
LINE
  5
58E
330
A92
100
AcDbEntity
  8
C4
100
AcDbLine
 10
485.6269137850071
 20
160.5137687289499
 30
0.0
 11
485.6269137850071
 21
146.5137687289499
 31
0.0
  0
LINE
  5
58F
330
A92
100
AcDbEntity
  8
C4
100
AcDbLine
 10
483.3733099645056
 20
160.5137687289499
 30
0.0
 11
483.3733099645056
 21
146.5137687289494
 31
0.0
  0
ARC
  5
590
330
A92
100
AcDbEntity
  8
C4
100
AcDbCircle
 10
483.6733099645057
 20
145.5598295275328
 30
0.0
 40
1.0
100
AcDbArc
 50
107.4576031237228
 51
180.0
  0
LINE
  5
591
330
A92
100
AcDbEntity
  8
C4
100
AcDbLine
 10
491.0527297129654
 20
160.5137687289499
 30
0.0
 11
491.0527297129654
 21
146.5137687289499
 31
0.0
  0
LINE
  5
592
330
A92
100
AcDbEntity
  8
C4
100
AcDbLine
 10
498.9192624214459
 20
160.5137687289499
 30
0.0
 11
498.9192624214459
 21
146.5137687289499
 31
0.0
  0
CIRCLE
  5
593
330
A92
100
AcDbEntity
  8
C4
100
AcDbCircle
 10
479.9958802761792
 20
187.1363390406233
 30
0.0
 40
2.0
  0
LINE
  5
594
330
A92
100
AcDbEntity
  8
C4
100
AcDbLine
 10
483.1778607915187
 20
183.9543585252838
 30
0.0
 11
477.5284876610093
 21
178.3049853947747
 31
0.0
  0
ARC
  5
595
330
A92
100
AcDbEntity
  8
C4
100
AcDbCircle
 10
479.9958802761792
 20
187.1363390406233
 30
0.0
 40
4.5
100
AcDbArc
 50
315.0000000000048
 51
135.0000000000048
  0
LINE
  5
596
330
A92
100
AcDbEntity
  8
C4
100
AcDbLine
 10
630.373309964506
 20
139.5137687289499
 30
0.0
 11
630.373309964506
 21
145.5137687289498
 31
0.0
  0
LINE
  5
597
330
A92
100
AcDbEntity
  8
C4
100
AcDbLine
 10
628.5358174994741
 20
89.32980542816309
 30
0.0
 11
673.5233099645058
 21
89.32980542816309
 31
0.0
  0
LINE
  5
598
330
A92
100
AcDbEntity
  8
C4
100
AcDbLine
 10
623.3907657251941
 20
97.25367778130888
 30
0.0
 11
673.5233099645058
 21
97.25367778130888
 31
0.0
  0
LINE
  5
599
330
A92
100
AcDbEntity
  8
C4
100
AcDbLine
 10
615.8229238397478
 20
102.63380818617
 30
0.0
 11
673.5233099645058
 21
102.63380818617
 31
0.0
  0
LINE
  5
59A
330
A92
100
AcDbEntity
  8
C4
100
AcDbLine
 10
673.5233099645058
 20
104.222454861052
 30
0.0
 11
611.247831221596
 21
104.222454861052
 31
0.0
  0
LINE
  5
59B
330
A92
100
AcDbEntity
  8
C4
100
AcDbLine
 10
681.5233099645058
 20
68.12245486105218
 30
0.0
 11
627.8233099645055
 21
68.12245486105218
 31
0.0
  0
LINE
  5
59C
330
A92
100
AcDbEntity
  8
C4
100
AcDbLine
 10
629.6733099645055
 20
65.12245486105218
 30
0.0
 11
681.5233099645058
 21
65.12245486105218
 31
0.0
  0
LINE
  5
59D
330
A92
100
AcDbEntity
  8
C4
100
AcDbLine
 10
629.6733099645055
 20
71.12245486105218
 30
0.0
 11
681.5233099645058
 21
71.12245486105627
 31
0.0
  0
ARC
  5
59E
330
A92
100
AcDbEntity
  8
C4
100
AcDbCircle
 10
605.3733099645053
 20
79.92245486105236
 30
0.0
 40
25.0
100
AcDbArc
 50
0.0
 51
90.0
  0
ARC
  5
59F
330
A92
100
AcDbEntity
  8
C4
100
AcDbCircle
 10
601.5233099645058
 20
77.12245486105217
 30
0.0
 40
25.0
100
AcDbArc
 50
0.0
 51
90.0
  0
LINE
  5
5A0
330
A92
100
AcDbEntity
  8
C4
100
AcDbLine
 10
626.5233099645058
 20
77.12245486105217
 30
0.0
 11
626.5233099645058
 21
47.12245486105217
 31
0.0
  0
LINE
  5
5A1
330
A92
100
AcDbEntity
  8
C4
100
AcDbLine
 10
627.8233099645055
 20
68.12245486105218
 30
0.0
 11
627.8233099645055
 21
73.12245486105218
 31
0.0
  0
LINE
  5
5A2
330
A92
100
AcDbEntity
  8
C4
100
AcDbLine
 10
630.3733099645054
 20
79.92245486105236
 30
0.0
 11
630.3733099645054
 21
71.12245486105218
 31
0.0
  0
LINE
  5
5A3
330
A92
100
AcDbEntity
  8
C4
100
AcDbLine
 10
628.8733099645054
 20
68.12245486105218
 30
0.0
 11
629.6733099645055
 21
71.12245486105218
 31
0.0
  0
LINE
  5
5A4
330
A92
100
AcDbEntity
  8
C4
100
AcDbLine
 10
630.3733099645054
 20
65.12245486105218
 30
0.0
 11
630.3733099645058
 21
45.02245486105226
 31
0.0
  0
LINE
  5
5A5
330
A92
100
AcDbEntity
  8
C4
100
AcDbLine
 10
628.8733099645054
 20
68.12245486105218
 30
0.0
 11
629.6733099645055
 21
65.12245486105218
 31
0.0
  0
LINE
  5
5A6
330
A92
100
AcDbEntity
  8
C4
100
AcDbLine
 10
627.8233099645055
 20
73.12245486105218
 30
0.0
 11
626.5233099645058
 21
73.12245486105218
 31
0.0
  0
ARC
  5
5A7
330
A92
100
AcDbEntity
  8
C4
100
AcDbCircle
 10
629.3733099645059
 20
139.5137687289499
 30
0.0
 40
1.0
100
AcDbArc
 50
270.0
 51
0.0
  0
LINE
  5
5A8
330
A92
100
AcDbEntity
  8
C4
100
AcDbLine
 10
673.5233099645058
 20
104.222454861052
 30
0.0
 11
673.5233099645058
 21
71.12245486105582
 31
0.0
  0
ARC
  5
5A9
330
A92
100
AcDbEntity
  8
C4
100
AcDbCircle
 10
680.5233099645058
 20
103.9224548610523
 30
0.0
 40
1.0
100
AcDbArc
 50
0.0
 51
90.0
  0
ARC
  5
5AA
330
A92
100
AcDbEntity
  8
C4
100
AcDbCircle
 10
674.4772491659226
 20
103.9224548610519
 30
0.0
 40
1.0
100
AcDbArc
 50
90.00000000000323
 51
162.542396876281
  0
LINE
  5
5AB
330
A92
100
AcDbEntity
  8
C4
100
AcDbLine
 10
680.5233099645058
 20
104.9224548610523
 30
0.0
 11
674.4772491659226
 21
104.9224548610519
 31
0.0
  0
ARC
  5
5AC
330
A92
100
AcDbEntity
  8
C4
100
AcDbCircle
 10
659.6733099645062
 20
160.5137687289499
 30
0.0
 40
45.54595245694011
100
AcDbArc
 50
90.0
 51
180.0
  0
ARC
  5
5AD
330
A92
100
AcDbEntity
  8
C4
100
AcDbCircle
 10
659.6733099645062
 20
160.5137687289499
 30
0.0
 40
30.0
100
AcDbArc
 50
90.0
 51
180.0
  0
ARC
  5
5AE
330
A92
100
AcDbEntity
  8
C4
100
AcDbCircle
 10
659.6733099645062
 20
160.5137687289499
 30
0.0
 40
37.67941974845966
100
AcDbArc
 50
90.0
 51
128.1408739150801
  0
ARC
  5
5AF
330
A92
100
AcDbEntity
  8
C4
100
AcDbCircle
 10
659.6733099645062
 20
160.5137687289499
 30
0.0
 40
32.25360382050145
100
AcDbArc
 50
90.0
 51
126.9799692345636
  0
ARC
  5
5B0
330
A92
100
AcDbEntity
  8
C4
100
AcDbCircle
 10
659.6733099645062
 20
160.5137687289499
 30
0.0
 40
37.67941974845966
100
AcDbArc
 50
141.8591260849171
 51
180.0
  0
LINE
  5
5B1
330
A92
100
AcDbEntity
  8
C4
100
AcDbLine
 10
614.1273575075659
 20
160.5137687289499
 30
0.0
 11
614.1273575075659
 21
146.5137687289499
 31
0.0
  0
LINE
  5
5B2
330
A92
100
AcDbEntity
  8
C4
100
AcDbLine
 10
621.9938902160463
 20
160.5137687289499
 30
0.0
 11
621.9938902160463
 21
146.5137687289499
 31
0.0
  0
ARC
  5
5B3
330
A92
100
AcDbEntity
  8
C4
100
AcDbCircle
 10
659.6733099645062
 20
160.5137687289499
 30
0.0
 40
32.25360382050145
100
AcDbArc
 50
143.0200307654443
 51
180.0
  0
ARC
  5
5B4
330
A92
100
AcDbEntity
  8
C4
100
AcDbCircle
 10
629.3733099645059
 20
145.5598295275328
 30
0.0
 40
1.0
100
AcDbArc
 50
0.0
 51
72.5423968762772
  0
LINE
  5
5B5
330
A92
100
AcDbEntity
  8
C4
100
AcDbLine
 10
629.6733099645061
 20
160.5137687289499
 30
0.0
 11
629.6733099645061
 21
146.5137687289494
 31
0.0
  0
LINE
  5
5B6
330
A92
100
AcDbEntity
  8
C4
100
AcDbLine
 10
627.4197061440045
 20
160.5137687289499
 30
0.0
 11
627.4197061440045
 21
146.5137687289499
 31
0.0
  0
LINE
  5
5B7
330
A92
100
AcDbEntity
  8
C4
100
AcDbLine
 10
636.2327201681721
 20
190.3183195559627
 30
0.0
 11
641.8820932986811
 21
184.6689464254537
 31
0.0
  0
LINE
  5
5B8
330
A92
100
AcDbEntity
  8
C4
100
AcDbLine
 10
629.8687591374931
 20
183.9543585252838
 30
0.0
 11
635.5181322680023
 21
178.3049853947747
 31
0.0
  0
CIRCLE
  5
5B9
330
A92
100
AcDbEntity
  8
C4
100
AcDbCircle
 10
633.0507396528325
 20
187.1363390406233
 30
0.0
 40
2.0
  0
ARC
  5
5BA
330
A92
100
AcDbEntity
  8
C4
100
AcDbCircle
 10
633.0507396528325
 20
187.1363390406233
 30
0.0
 40
4.5
100
AcDbArc
 50
44.99999999999515
 51
224.9999999999952
  0
LINE
  5
5BB
330
A92
100
AcDbEntity
  8
C4
100
AcDbLine
 10
659.6733099645062
 20
192.7673725494512
 30
0.0
 11
673.5233099645061
 21
192.7673725494512
 31
0.0
  0
LINE
  5
5BC
330
A92
100
AcDbEntity
  8
C4
100
AcDbLine
 10
673.5233099645061
 20
190.5137687289499
 30
0.0
 11
659.6733099645062
 21
190.5137687289499
 31
0.0
  0
ARC
  5
5BD
330
A92
100
AcDbEntity
  8
C4
100
AcDbCircle
 10
674.4772491659229
 20
190.8137687289496
 30
0.0
 40
1.0
100
AcDbArc
 50
197.4576031237189
 51
270.0
  0
ARC
  5
5BE
330
A92
100
AcDbEntity
  8
C4
100
AcDbCircle
 10
680.5233099645061
 20
190.8137687289496
 30
0.0
 40
1.0
100
AcDbArc
 50
270.0
 51
0.0
  0
LINE
  5
5BF
330
A92
100
AcDbEntity
  8
C4
100
AcDbLine
 10
680.5233099645061
 20
189.8137687289497
 30
0.0
 11
674.523309964506
 21
189.8137687289497
 31
0.0
  0
LINE
  5
5C0
330
A92
100
AcDbEntity
  8
C4
100
AcDbLine
 10
659.6733099645062
 20
206.05972118589
 30
0.0
 11
673.5233099645061
 21
206.05972118589
 31
0.0
  0
LINE
  5
5C1
330
A92
100
AcDbEntity
  8
C4
100
AcDbLine
 10
659.6733099645062
 20
198.1931884774096
 30
0.0
 11
673.5233099645061
 21
198.1931884774096
 31
0.0
  0
TEXT
  5
5C2
330
A92
100
AcDbEntity
  8
1外形線
100
AcDbText
 10
431.5233100968404
 20
485.6879227810217
 30
0.0
 40
10.0
  1
ST-140
  7
KANJI
100
AcDbText
  0
LINE
  5
5C3
330
A92
100
AcDbEntity
  8
C4
100
AcDbLine
 10
477.0233099645057
 20
334.5601649084484
 30
0.0
 11
439.5233099645057
 21
334.5601649084484
 31
0.0
  0
LINE
  5
5C4
330
A92
100
AcDbEntity
  8
C4
100
AcDbLine
 10
477.0234061346
 20
329.13434898049
 30
0.0
 11
439.5233099645057
 21
329.13434898049
 31
0.0
  0
LINE
  5
5C5
330
A92
100
AcDbEntity
  8
C4
100
AcDbLine
 10
556.5233099645058
 20
321.2678162720096
 30
0.0
 11
439.5233099645057
 21
321.2678162720096
 31
0.0
  0
LINE
  5
5C6
330
A92
100
AcDbEntity
  8
C4
100
AcDbLine
 10
439.5233099645057
 20
336.8137687289496
 30
0.0
 11
556.5233099645058
 21
336.8137687289496
 31
0.0
  0
LINE
  5
5C7
330
A92
100
AcDbEntity
  8
C4
100
AcDbLine
 10
440.5233099645057
 20
583.3710220828124
 30
0.0
 11
484.3962441591123
 21
583.3710220828124
 31
0.0
  0
LINE
  5
5C8
330
A92
100
AcDbEntity
  8
C4
100
AcDbLine
 10
440.5233099645057
 20
591.5894428268443
 30
0.0
 11
478.9645259307772
 21
591.5894428268445
 31
0.0
  0
LINE
  5
5C9
330
A92
100
AcDbEntity
  8
C4
100
AcDbLine
 10
477.7233099645057
 20
619.6879213433614
 30
0.0
 11
431.5233099645054
 21
619.6879213433614
 31
0.0
  0
LINE
  5
5CA
330
A92
100
AcDbEntity
  8
C4
100
AcDbLine
 10
477.7233099645057
 20
613.6879213433615
 30
0.0
 11
431.5233099645054
 21
613.6879213433615
 31
0.0
  0
LINE
  5
5CB
330
A92
100
AcDbEntity
  8
C4
100
AcDbLine
 10
479.7233099645057
 20
616.6879213433615
 30
0.0
 11
431.5233099645054
 21
616.6879213433615
 31
0.0
  0
LINE
  5
5CC
330
A92
100
AcDbEntity
  8
C4
100
AcDbLine
 10
484.7549611691277
 20
644.9805967562508
 30
0.0
 11
440.523309964506
 21
644.9805967562508
 31
0.0
  0
LINE
  5
5CD
330
A92
100
AcDbEntity
  8
C4
100
AcDbLine
 10
478.9529331158726
 20
635.6266255988494
 30
0.0
 11
440.5233099645057
 21
635.6266255988494
 31
0.0
  0
ARC
  5
5CE
330
A92
100
AcDbEntity
  8
C4
100
AcDbCircle
 10
506.2233099645056
 20
625.1879213433615
 30
0.0
 40
29.19999999999999
100
AcDbArc
 50
90.0
 51
180.0
  0
LINE
  5
5CF
330
A92
100
AcDbEntity
  8
C4
100
AcDbLine
 10
440.5233099645057
 20
577.7889422731163
 30
0.0
 11
492.5459730416102
 21
577.7889422731163
 31
0.0
  0
LINE
  5
5D0
330
A92
100
AcDbEntity
  8
C4
100
AcDbLine
 10
531.5233099645054
 20
575.6879213433615
 30
0.0
 11
431.5233099645057
 21
575.6879213433615
 31
0.0
  0
ARC
  5
5D1
330
A92
100
AcDbEntity
  8
C4
100
AcDbCircle
 10
502.7233099645057
 20
601.3879213433615
 30
0.0
 40
25.7
100
AcDbArc
 50
180.0
 51
270.0
  0
LINE
  5
5D2
330
A92
100
AcDbEntity
  8
C4
100
AcDbLine
 10
493.1969571943454
 20
651.3213125030893
 30
0.0
 11
440.5233099645057
 21
651.321312503089
 31
0.0
  0
LINE
  5
5D3
330
A92
100
AcDbEntity
  8
C4
100
AcDbLine
 10
499.8679972263312
 20
653.6879213433614
 30
0.0
 11
440.5233099645057
 21
653.6879213433614
 31
0.0
  0
ARC
  5
5D4
330
A92
100
AcDbEntity
  8
C4
100
AcDbCircle
 10
475.0377327309841
 20
727.1023441098398
 30
0.0
 40
4.5
100
AcDbArc
 50
315.0000000000048
 51
135.0000000000048
  0
ARC
  5
5D5
330
A92
100
AcDbEntity
  8
C4
100
AcDbCircle
 10
449.7233099645057
 20
701.7879213433614
 30
0.0
 40
28.0
100
AcDbArc
 50
0.0
 51
90.0
  0
ARC
  5
5D6
330
A92
100
AcDbEntity
  8
C4
100
AcDbCircle
 10
449.7233099645057
 20
701.7879213433614
 30
0.0
 40
36.70732458711055
100
AcDbArc
 50
51.97064291510075
 51
90.0
  0
ARC
  5
5D7
330
A92
100
AcDbEntity
  8
C4
100
AcDbCircle
 10
449.7233099645057
 20
701.7879213433614
 30
0.0
 40
46.0612957445119
100
AcDbArc
 50
0.0
 51
90.0
  0
LINE
  5
5D8
330
A92
100
AcDbEntity
  8
C4
100
AcDbLine
 10
431.5233099645057
 20
653.3879213433615
 30
0.0
 11
431.5233099645057
 21
575.6879213433615
 31
0.0
  0
LINE
  5
5D9
330
A92
100
AcDbEntity
  8
C4
100
AcDbLine
 10
440.5233099645057
 20
613.6879213433615
 30
0.0
 11
440.5233099645057
 21
575.6879213433615
 31
0.0
  0
ARC
  5
5DA
330
A92
100
AcDbEntity
  8
C4
100
AcDbCircle
 10
438.5693707630888
 20
336.5137687289495
 30
0.0
 40
1.0
100
AcDbArc
 50
17.45760312371896
 51
90.0
  0
ARC
  5
5DB
330
A92
100
AcDbEntity
  8
C4
100
AcDbCircle
 10
432.5233099645057
 20
336.5137687289495
 30
0.0
 40
1.0
100
AcDbArc
 50
90.0
 51
180.0
  0
LINE
  5
5DC
330
A92
100
AcDbEntity
  8
C4
100
AcDbLine
 10
432.5233099645057
 20
337.5137687289495
 30
0.0
 11
438.5233099645057
 21
337.5137687289499
 31
0.0
  0
LINE
  5
5DD
330
A92
100
AcDbEntity
  8
C4
100
AcDbLine
 10
440.5233099645057
 20
653.3879213433615
 30
0.0
 11
440.5233099645057
 21
619.6879213433614
 31
0.0
  0
ARC
  5
5DE
330
A92
100
AcDbEntity
  8
C4
100
AcDbCircle
 10
439.5233099645057
 20
653.3879213433615
 30
0.0
 40
1.0
100
AcDbArc
 50
0.0
 51
90.0
  0
ARC
  5
5DF
330
A92
100
AcDbEntity
  8
C4
100
AcDbCircle
 10
432.5233099645057
 20
653.3879213433615
 30
0.0
 40
1.0
100
AcDbArc
 50
90.0
 51
180.0
  0
LINE
  5
5E0
330
A92
100
AcDbEntity
  8
C4
100
AcDbLine
 10
439.5233099645057
 20
654.3879213433615
 30
0.0
 11
432.5233099645057
 21
654.3879213433615
 31
0.0
  0
LINE
  5
5E1
330
A92
100
AcDbEntity
  8
C4
100
AcDbLine
 10
449.7233099645057
 20
732.1545301836331
 30
0.0
 11
440.4772491659226
 21
732.1545301836331
 31
0.0
  0
LINE
  5
5E2
330
A92
100
AcDbEntity
  8
C4
100
AcDbLine
 10
449.7233099645057
 20
729.7879213433613
 30
0.0
 11
440.4772491659226
 21
729.7879213433613
 31
0.0
  0
LINE
  5
5E3
330
A92
100
AcDbEntity
  8
C4
100
AcDbLine
 10
449.7233099645057
 20
747.8492170878732
 30
0.0
 11
440.4772491659226
 21
747.8492170878732
 31
0.0
  0
LINE
  5
5E4
330
A92
100
AcDbEntity
  8
C4
100
AcDbLine
 10
449.7233099645057
 20
738.495245930472
 30
0.0
 11
440.4772491659226
 21
738.495245930472
 31
0.0
  0
ARC
  5
5E5
330
A92
100
AcDbEntity
  8
C4
100
AcDbCircle
 10
439.5233099645057
 20
730.0879213433614
 30
0.0
 40
1.0
100
AcDbArc
 50
270.0
 51
0.0
  0
ARC
  5
5E6
330
A92
100
AcDbEntity
  8
C4
100
AcDbCircle
 10
432.5233099645057
 20
730.0879213433614
 30
0.0
 40
1.0
100
AcDbArc
 50
180.0
 51
270.0
  0
LINE
  5
5E7
330
A92
100
AcDbEntity
  8
C4
100
AcDbLine
 10
439.5233099645057
 20
729.0879213433613
 30
0.0
 11
432.5233099645057
 21
729.0879213433613
 31
0.0
  0
ARC
  5
5E8
330
A92
100
AcDbEntity
  8
C4
100
AcDbCircle
 10
449.7233099645057
 20
701.7879213433614
 30
0.0
 40
30.36660884027182
100
AcDbArc
 50
53.52199598223934
 51
90.0
  0
LINE
  5
5E9
330
A92
100
AcDbEntity
  8
C4
100
AcDbLine
 10
466.0829516950289
 20
724.5115241045636
 30
0.0
 11
471.8557522156446
 21
730.2843246251791
 31
0.0
  0
LINE
  5
5EA
330
A92
100
AcDbEntity
  8
C4
100
AcDbLine
 10
631.5233099645055
 20
653.3879213433613
 30
0.0
 11
631.5233099645054
 21
575.6879213433611
 31
0.0
  0
LINE
  5
5EB
330
A92
100
AcDbEntity
  8
C4
100
AcDbLine
 10
622.5233099645054
 20
613.6879213433612
 30
0.0
 11
622.5233099645054
 21
575.6879213433611
 31
0.0
  0
ARC
  5
5EC
330
A92
100
AcDbEntity
  8
C4
100
AcDbCircle
 10
560.3233099645056
 20
601.3879213433615
 30
0.0
 40
25.7
100
AcDbArc
 50
270.0
 51
0.0
  0
ARC
  5
5ED
330
A92
100
AcDbEntity
  8
C4
100
AcDbCircle
 10
560.0233099645054
 20
600.6879213433615
 30
0.0
 40
22.0
100
AcDbArc
 50
270.0
 51
0.0
  0
ARC
  5
5EE
330
A92
100
AcDbEntity
  8
C4
100
AcDbCircle
 10
503.0233099645053
 20
600.6879213433615
 30
0.0
 40
22.0
100
AcDbArc
 50
180.0
 51
270.0
  0
LINE
  5
5EF
330
A92
100
AcDbEntity
  8
C4
100
AcDbLine
 10
556.5233099645058
 20
321.2678162720096
 30
0.0
 11
673.5233099645061
 21
321.2678162720096
 31
0.0
  0
LINE
  5
5F0
330
A92
100
AcDbEntity
  8
C4
100
AcDbLine
 10
556.5233099645058
 20
334.5601649084484
 30
0.0
 11
627.0233099645061
 21
334.5601649084484
 31
0.0
  0
LINE
  5
5F1
330
A92
100
AcDbEntity
  8
C4
100
AcDbLine
 10
556.5233099645058
 20
329.13434898049
 30
0.0
 11
627.0234061346005
 21
329.13434898049
 31
0.0
  0
LINE
  5
5F2
330
A92
100
AcDbEntity
  8
C4
100
AcDbLine
 10
673.5233099645061
 20
336.8137687289496
 30
0.0
 11
556.5233099645058
 21
336.8137687289496
 31
0.0
  0
LINE
  5
5F3
330
A92
100
AcDbEntity
  8
C4
100
AcDbLine
 10
531.5233099645058
 20
575.6879213433615
 30
0.0
 11
631.5233099645054
 21
575.6879213433615
 31
0.0
  0
LINE
  5
5F4
330
A92
100
AcDbEntity
  8
C4
100
AcDbLine
 10
622.5233099645054
 20
591.589442826844
 30
0.0
 11
584.0820939982338
 21
591.5894428268443
 31
0.0
  0
LINE
  5
5F5
330
A92
100
AcDbEntity
  8
C4
100
AcDbLine
 10
622.5233099645054
 20
583.3710220828122
 30
0.0
 11
578.650375769899
 21
583.3710220828122
 31
0.0
  0
LINE
  5
5F6
330
A92
100
AcDbEntity
  8
C4
100
AcDbLine
 10
622.5233099645054
 20
577.7889422731162
 30
0.0
 11
570.5006468874008
 21
577.7889422731163
 31
0.0
  0
LINE
  5
5F7
330
A92
100
AcDbEntity
  8
C4
100
AcDbLine
 10
556.5233099645058
 20
329.13434898049
 30
0.0
 11
486.0232137944112
 21
329.13434898049
 31
0.0
  0
LINE
  5
5F8
330
A92
100
AcDbEntity
  8
C4
100
AcDbLine
 10
556.5233099645058
 20
334.5601649084484
 30
0.0
 11
486.0233099645057
 21
334.5601649084484
 31
0.0
  0
LINE
  5
5F9
330
A92
100
AcDbEntity
  8
C4
100
AcDbLine
 10
486.0233099645057
 20
329.16376872895
 30
0.0
 11
486.0233099645057
 21
336.8137687289496
 31
0.0
  0
LINE
  5
5FA
330
A92
100
AcDbEntity
  8
C4
100
AcDbLine
 10
477.0233099645057
 20
329.16376872895
 30
0.0
 11
477.0233099645057
 21
336.8137687289496
 31
0.0
  0
CIRCLE
  5
5FB
330
A92
100
AcDbEntity
  8
C4
100
AcDbCircle
 10
481.5233099645057
 20
329.16376872895
 30
0.0
 40
2.0
  0
ARC
  5
5FC
330
A92
100
AcDbEntity
  8
C4
100
AcDbCircle
 10
481.5233099645057
 20
329.16376872895
 30
0.0
 40
4.5
100
AcDbArc
 50
180.0
 51
0.0
  0
LINE
  5
5FD
330
A92
100
AcDbEntity
  8
C4
100
AcDbLine
 10
531.5233099645054
 20
578.6879213433613
 30
0.0
 11
560.0233099645054
 21
578.6879213433613
 31
0.0
  0
LINE
  5
5FE
330
A92
100
AcDbEntity
  8
C4
100
AcDbLine
 10
513.5233099645054
 20
580.6879213433615
 30
0.0
 11
549.5233099645054
 21
580.6879213433615
 31
0.0
  0
LINE
  5
5FF
330
A92
100
AcDbEntity
  8
C4
100
AcDbLine
 10
493.858158574594
 20
580.6879213433615
 30
0.0
 11
509.5233099645056
 21
580.6879213433615
 31
0.0
  0
LINE
  5
600
330
A92
100
AcDbEntity
  8
C4
100
AcDbLine
 10
531.5233099645054
 20
578.6879213433613
 30
0.0
 11
503.0233099645053
 21
578.6879213433613
 31
0.0
  0
LINE
  5
601
330
A92
100
AcDbEntity
  8
C4
100
AcDbLine
 10
513.5233099645056
 20
581.1879213433615
 30
0.0
 11
513.5233099645056
 21
578.6879213433613
 31
0.0
  0
LINE
  5
602
330
A92
100
AcDbEntity
  8
C4
100
AcDbLine
 10
509.5233099645056
 20
581.1879213433615
 30
0.0
 11
509.5233099645056
 21
578.6879213433613
 31
0.0
  0
LINE
  5
603
330
A92
100
AcDbEntity
  8
C4
100
AcDbLine
 10
513.0233099645058
 20
581.6879213433614
 30
0.0
 11
510.0233099645057
 21
581.6879213433614
 31
0.0
  0
ARC
  5
604
330
A92
100
AcDbEntity
  8
C4
100
AcDbCircle
 10
510.0233099645057
 20
581.1879213433615
 30
0.0
 40
0.5
100
AcDbArc
 50
90.0
 51
180.0
  0
ARC
  5
605
330
A92
100
AcDbEntity
  8
C4
100
AcDbCircle
 10
513.0233099645058
 20
581.1879213433615
 30
0.0
 40
0.5
100
AcDbArc
 50
0.0
 51
90.0
  0
LINE
  5
606
330
A92
100
AcDbEntity
  8
C4
100
AcDbLine
 10
553.5233099645053
 20
580.6879213433615
 30
0.0
 11
569.188461354417
 21
580.6879213433615
 31
0.0
  0
LINE
  5
607
330
A92
100
AcDbEntity
  8
C4
100
AcDbLine
 10
550.0233099645054
 20
581.6879213433614
 30
0.0
 11
553.0233099645053
 21
581.6879213433614
 31
0.0
  0
LINE
  5
608
330
A92
100
AcDbEntity
  8
C4
100
AcDbLine
 10
549.5233099645054
 20
581.1879213433615
 30
0.0
 11
549.5233099645054
 21
578.6879213433613
 31
0.0
  0
ARC
  5
609
330
A92
100
AcDbEntity
  8
C4
100
AcDbCircle
 10
550.0233099645054
 20
581.1879213433615
 30
0.0
 40
0.5
100
AcDbArc
 50
90.0
 51
180.0
  0
LINE
  5
60A
330
A92
100
AcDbEntity
  8
C4
100
AcDbLine
 10
553.5233099645053
 20
581.1879213433615
 30
0.0
 11
553.5233099645053
 21
578.6879213433613
 31
0.0
  0
ARC
  5
60B
330
A92
100
AcDbEntity
  8
C4
100
AcDbCircle
 10
553.0233099645053
 20
581.1879213433615
 30
0.0
 40
0.5
100
AcDbArc
 50
0.0
 51
90.0
  0
LINE
  5
60C
330
A92
100
AcDbEntity
  8
C4
100
AcDbLine
 10
636.0232137944117
 20
329.13434898049
 30
0.0
 11
673.5233099645061
 21
329.13434898049
 31
0.0
  0
LINE
  5
60D
330
A92
100
AcDbEntity
  8
C4
100
AcDbLine
 10
636.0233099645061
 20
334.5601649084484
 30
0.0
 11
673.5233099645061
 21
334.5601649084484
 31
0.0
  0
LINE
  5
60E
330
A92
100
AcDbEntity
  8
C4
100
AcDbLine
 10
627.0233099645061
 20
329.16376872895
 30
0.0
 11
627.0233099645061
 21
336.8137687289496
 31
0.0
  0
LINE
  5
60F
330
A92
100
AcDbEntity
  8
C4
100
AcDbLine
 10
636.0233099645061
 20
329.16376872895
 30
0.0
 11
636.0233099645061
 21
336.8137687289496
 31
0.0
  0
ARC
  5
610
330
A92
100
AcDbEntity
  8
C4
100
AcDbCircle
 10
631.5233099645061
 20
329.16376872895
 30
0.0
 40
4.5
100
AcDbArc
 50
180.0
 51
0.0
  0
CIRCLE
  5
611
330
A92
100
AcDbEntity
  8
C4
100
AcDbCircle
 10
631.5233099645061
 20
329.16376872895
 30
0.0
 40
2.0
  0
ARC
  5
612
330
A92
100
AcDbEntity
  8
C4
100
AcDbCircle
 10
674.4772491659229
 20
336.5137687289495
 30
0.0
 40
1.0
100
AcDbArc
 50
90.0
 51
162.542396876281
  0
ARC
  5
613
330
A92
100
AcDbEntity
  8
C4
100
AcDbCircle
 10
680.5233099645061
 20
336.5137687289495
 30
0.0
 40
1.0
100
AcDbArc
 50
0.0
 51
90.0
  0
LINE
  5
614
330
A92
100
AcDbEntity
  8
C4
100
AcDbLine
 10
680.5233099645061
 20
337.5137687289495
 30
0.0
 11
674.523309964506
 21
337.5137687289499
 31
0.0
  0
LINE
  5
615
330
A92
100
AcDbEntity
  8
C4
100
AcDbLine
 10
585.3233099645056
 20
619.6879213433613
 30
0.0
 11
631.5233099645054
 21
619.6879213433613
 31
0.0
  0
LINE
  5
616
330
A92
100
AcDbEntity
  8
C4
100
AcDbLine
 10
585.3233099645056
 20
613.6879213433615
 30
0.0
 11
631.5233099645054
 21
613.6879213433612
 31
0.0
  0
LINE
  5
617
330
A92
100
AcDbEntity
  8
C4
100
AcDbLine
 10
583.3233099645055
 20
616.6879213433612
 30
0.0
 11
631.5233099645055
 21
616.6879213433612
 31
0.0
  0
LINE
  5
618
330
A92
100
AcDbEntity
  8
C4
100
AcDbLine
 10
569.8496627346657
 20
651.321312503089
 30
0.0
 11
622.5233099645054
 21
651.321312503089
 31
0.0
  0
LINE
  5
619
330
A92
100
AcDbEntity
  8
C4
100
AcDbLine
 10
578.2916587598836
 20
644.9805967562508
 30
0.0
 11
622.5233099645054
 21
644.9805967562506
 31
0.0
  0
LINE
  5
61A
330
A92
100
AcDbEntity
  8
C4
100
AcDbLine
 10
584.0936868131386
 20
635.6266255988494
 30
0.0
 11
622.5233099645054
 21
635.6266255988491
 31
0.0
  0
LINE
  5
61B
330
A92
100
AcDbEntity
  8
C4
100
AcDbLine
 10
563.17862270268
 20
653.6879213433614
 30
0.0
 11
622.5233099645057
 21
653.6879213433612
 31
0.0
  0
ARC
  5
61C
330
A92
100
AcDbEntity
  8
C4
100
AcDbCircle
 10
613.3233099645056
 20
701.7879213433614
 30
0.0
 40
30.36660884027182
100
AcDbArc
 50
90.0
 51
126.4780040177606
  0
ARC
  5
61D
330
A92
100
AcDbEntity
  8
C4
100
AcDbCircle
 10
613.3233099645056
 20
701.7879213433614
 30
0.0
 40
36.70732458711055
100
AcDbArc
 50
90.0
 51
128.0293570848992
  0
ARC
  5
61E
330
A92
100
AcDbEntity
  8
C4
100
AcDbCircle
 10
613.3233099645056
 20
701.7879213433614
 30
0.0
 40
28.0
100
AcDbArc
 50
90.0
 51
180.0
  0
LINE
  5
61F
330
A92
100
AcDbEntity
  8
C4
100
AcDbLine
 10
596.9636682339824
 20
724.5115241045636
 30
0.0
 11
591.1908677133667
 21
730.2843246251791
 31
0.0
  0
ARC
  5
620
330
A92
100
AcDbEntity
  8
C4
100
AcDbCircle
 10
613.3233099645056
 20
701.7879213433614
 30
0.0
 40
46.0612957445119
100
AcDbArc
 50
90.0
 51
180.0
  0
ARC
  5
621
330
A92
100
AcDbEntity
  8
C4
100
AcDbCircle
 10
613.3233099645056
 20
701.7879213433614
 30
0.0
 40
30.36660884027182
100
AcDbArc
 50
143.5219959822384
 51
180.0
  0
ARC
  5
622
330
A92
100
AcDbEntity
  8
C4
100
AcDbCircle
 10
613.3233099645056
 20
701.7879213433614
 30
0.0
 40
36.70732458711055
100
AcDbArc
 50
141.9706429150974
 51
180.0
  0
ARC
  5
623
330
A92
100
AcDbEntity
  8
C4
100
AcDbCircle
 10
449.7233099645057
 20
701.7879213433614
 30
0.0
 40
30.36660884027182
100
AcDbArc
 50
0.0
 51
36.47800401776156
  0
ARC
  5
624
330
A92
100
AcDbEntity
  8
C4
100
AcDbCircle
 10
449.7233099645057
 20
701.7879213433614
 30
0.0
 40
36.70732458711055
100
AcDbArc
 50
0.0
 51
38.02935708490252
  0
LINE
  5
625
330
A92
100
AcDbEntity
  8
C4
100
AcDbLine
 10
531.5233099645054
 20
654.3879213433615
 30
0.0
 11
556.8233099645055
 21
654.3879213433615
 31
0.0
  0
LINE
  5
626
330
A92
100
AcDbEntity
  8
C4
100
AcDbLine
 10
557.0233099645053
 20
650.1879213433615
 30
0.0
 11
531.5233099645054
 21
650.1879213433615
 31
0.0
  0
LINE
  5
627
330
A92
100
AcDbEntity
  8
C4
100
AcDbLine
 10
585.0233099645057
 20
684.3879213433615
 30
0.0
 11
531.5233099645057
 21
684.3879213433615
 31
0.0
  0
LINE
  5
628
330
A92
100
AcDbEntity
  8
C4
100
AcDbLine
 10
585.0233099645057
 20
693.3879213433615
 30
0.0
 11
531.5233099645057
 21
693.3879213433615
 31
0.0
  0
ARC
  5
629
330
A92
100
AcDbEntity
  8
C4
100
AcDbCircle
 10
506.0233099645054
 20
625.1879213433615
 30
0.0
 40
25.0
100
AcDbArc
 50
90.0
 51
180.0
  0
LINE
  5
62A
330
A92
100
AcDbEntity
  8
C4
100
AcDbLine
 10
477.0233099645054
 20
619.6879213433614
 30
0.0
 11
477.0233099645054
 21
625.1879213433615
 31
0.0
  0
LINE
  5
62B
330
A92
100
AcDbEntity
  8
C4
100
AcDbLine
 10
481.0233099645054
 20
600.6879213433615
 30
0.0
 11
481.0233099645054
 21
625.1879213433615
 31
0.0
  0
LINE
  5
62C
330
A92
100
AcDbEntity
  8
C4
100
AcDbLine
 10
479.7233099645057
 20
616.6879213433615
 30
0.0
 11
479.7233099645057
 21
621.6879213433615
 31
0.0
  0
LINE
  5
62D
330
A92
100
AcDbEntity
  8
C4
100
AcDbLine
 10
479.7233099645057
 20
621.6879213433615
 30
0.0
 11
481.0233099645054
 21
621.6879213433615
 31
0.0
  0
LINE
  5
62E
330
A92
100
AcDbEntity
  8
C4
100
AcDbLine
 10
477.7233099645057
 20
613.6879213433615
 30
0.0
 11
478.7233099645057
 21
616.6879213433615
 31
0.0
  0
LINE
  5
62F
330
A92
100
AcDbEntity
  8
C4
100
AcDbLine
 10
477.7233099645057
 20
619.6879213433614
 30
0.0
 11
478.7233099645057
 21
616.6879213433615
 31
0.0
  0
LINE
  5
630
330
A92
100
AcDbEntity
  8
C4
100
AcDbLine
 10
477.0233099645054
 20
613.6879213433615
 30
0.0
 11
477.0233099645054
 21
601.3879213433615
 31
0.0
  0
LINE
  5
631
330
A92
100
AcDbEntity
  8
C4
100
AcDbLine
 10
506.0233099645054
 20
650.1879213433615
 30
0.0
 11
531.5233099645054
 21
650.1879213433615
 31
0.0
  0
LINE
  5
632
330
A92
100
AcDbEntity
  8
C4
100
AcDbLine
 10
478.0233099645057
 20
693.3879213433615
 30
0.0
 11
531.5233099645057
 21
693.3879213433615
 31
0.0
  0
LINE
  5
633
330
A92
100
AcDbEntity
  8
C4
100
AcDbLine
 10
478.0233099645057
 20
684.3879213433615
 30
0.0
 11
531.5233099645057
 21
684.3879213433615
 31
0.0
  0
LINE
  5
634
330
A92
100
AcDbEntity
  8
C4
100
AcDbLine
 10
477.0233099645057
 20
685.3879213433615
 30
0.0
 11
477.0233099645057
 21
692.3879213433615
 31
0.0
  0
ARC
  5
635
330
A92
100
AcDbEntity
  8
C4
100
AcDbCircle
 10
478.0233099645057
 20
685.3879213433615
 30
0.0
 40
1.0
100
AcDbArc
 50
180.0
 51
270.0
  0
ARC
  5
636
330
A92
100
AcDbEntity
  8
C4
100
AcDbCircle
 10
478.0233099645057
 20
692.3879213433615
 30
0.0
 40
1.0
100
AcDbArc
 50
90.0
 51
180.0
  0
LINE
  5
637
330
A92
100
AcDbEntity
  8
C4
100
AcDbLine
 10
480.0899188047774
 20
693.3418605447784
 30
0.0
 11
480.0899188047774
 21
701.7879213433614
 31
0.0
  0
LINE
  5
638
330
A92
100
AcDbEntity
  8
C4
100
AcDbLine
 10
477.7233099645057
 20
693.3418605447784
 30
0.0
 11
477.7233099645057
 21
701.7879213433614
 31
0.0
  0
LINE
  5
639
330
A92
100
AcDbEntity
  8
C4
100
AcDbLine
 10
486.4306345516161
 20
693.3418605447784
 30
0.0
 11
486.4306345516161
 21
701.7879213433614
 31
0.0
  0
LINE
  5
63A
330
A92
100
AcDbEntity
  8
C4
100
AcDbLine
 10
495.7846057090176
 20
693.3418605447784
 30
0.0
 11
495.7846057090176
 21
701.7879213433614
 31
0.0
  0
LINE
  5
63B
330
A92
100
AcDbEntity
  8
C4
100
AcDbLine
 10
531.5233099645054
 20
654.3879213433615
 30
0.0
 11
506.2233099645056
 21
654.3879213433615
 31
0.0
  0
ARC
  5
63C
330
A92
100
AcDbEntity
  8
C4
100
AcDbCircle
 10
556.8233099645055
 20
625.1879213433615
 30
0.0
 40
29.19999999999999
100
AcDbArc
 50
0.0
 51
90.0
  0
ARC
  5
63D
330
A92
100
AcDbEntity
  8
C4
100
AcDbCircle
 10
557.0233099645053
 20
625.1879213433615
 30
0.0
 40
25.0
100
AcDbArc
 50
0.0
 51
90.0
  0
LINE
  5
63E
330
A92
100
AcDbEntity
  8
C4
100
AcDbLine
 10
586.0233099645054
 20
619.6879213433614
 30
0.0
 11
586.0233099645054
 21
625.1879213433615
 31
0.0
  0
LINE
  5
63F
330
A92
100
AcDbEntity
  8
C4
100
AcDbLine
 10
582.0233099645053
 20
600.6879213433615
 30
0.0
 11
582.0233099645053
 21
625.1879213433615
 31
0.0
  0
LINE
  5
640
330
A92
100
AcDbEntity
  8
C4
100
AcDbLine
 10
585.3233099645056
 20
613.6879213433615
 30
0.0
 11
584.3233099645056
 21
616.6879213433615
 31
0.0
  0
LINE
  5
641
330
A92
100
AcDbEntity
  8
C4
100
AcDbLine
 10
585.3233099645056
 20
619.6879213433614
 30
0.0
 11
584.3233099645056
 21
616.6879213433615
 31
0.0
  0
LINE
  5
642
330
A92
100
AcDbEntity
  8
C4
100
AcDbLine
 10
585.3233099645056
 20
619.6879213433614
 30
0.0
 11
586.0233099645054
 21
619.6879213433614
 31
0.0
  0
LINE
  5
643
330
A92
100
AcDbEntity
  8
C4
100
AcDbLine
 10
585.3233099645056
 20
613.6879213433615
 30
0.0
 11
586.0233099645054
 21
613.6879213433615
 31
0.0
  0
LINE
  5
644
330
A92
100
AcDbEntity
  8
C4
100
AcDbLine
 10
583.3233099645055
 20
616.6879213433615
 30
0.0
 11
583.3233099645055
 21
621.6879213433615
 31
0.0
  0
LINE
  5
645
330
A92
100
AcDbEntity
  8
C4
100
AcDbLine
 10
583.3233099645055
 20
621.6879213433615
 30
0.0
 11
582.0233099645053
 21
621.6879213433615
 31
0.0
  0
LINE
  5
646
330
A92
100
AcDbEntity
  8
C4
100
AcDbLine
 10
584.3233099645056
 20
616.6879213433615
 30
0.0
 11
583.3233099645055
 21
616.6879213433615
 31
0.0
  0
LINE
  5
647
330
A92
100
AcDbEntity
  8
C4
100
AcDbLine
 10
586.0233099645054
 20
613.6879213433615
 30
0.0
 11
586.0233099645054
 21
601.3879213433615
 31
0.0
  0
LINE
  5
648
330
A92
100
AcDbEntity
  8
C4
100
AcDbLine
 10
576.6159853773952
 20
693.3418605447784
 30
0.0
 11
576.6159853773952
 21
701.7879213433614
 31
0.0
  0
LINE
  5
649
330
A92
100
AcDbEntity
  8
C4
100
AcDbLine
 10
567.2620142199938
 20
693.3418605447784
 30
0.0
 11
567.2620142199938
 21
701.7879213433614
 31
0.0
  0
LINE
  5
64A
330
A92
100
AcDbEntity
  8
C4
100
AcDbLine
 10
586.0233099645056
 20
685.3879213433615
 30
0.0
 11
586.0233099645056
 21
692.3879213433615
 31
0.0
  0
ARC
  5
64B
330
A92
100
AcDbEntity
  8
C4
100
AcDbCircle
 10
585.0233099645057
 20
692.3879213433615
 30
0.0
 40
1.0
100
AcDbArc
 50
0.0
 51
90.0
  0
ARC
  5
64C
330
A92
100
AcDbEntity
  8
C4
100
AcDbCircle
 10
585.0233099645057
 20
685.3879213433615
 30
0.0
 40
1.0
100
AcDbArc
 50
270.0
 51
0.0
  0
LINE
  5
64D
330
A92
100
AcDbEntity
  8
C4
100
AcDbLine
 10
585.3233099645056
 20
693.3418605447784
 30
0.0
 11
585.3233099645056
 21
701.7879213433614
 31
0.0
  0
LINE
  5
64E
330
A92
100
AcDbEntity
  8
C4
100
AcDbLine
 10
582.9567011242338
 20
693.3418605447784
 30
0.0
 11
582.9567011242338
 21
701.7879213433614
 31
0.0
  0
LINE
  5
64F
330
A92
100
AcDbEntity
  8
C4
100
AcDbLine
 10
472.4469127257078
 20
718.1475630738848
 30
0.0
 11
478.2197132463234
 21
723.9203635945003
 31
0.0
  0
CIRCLE
  5
650
330
A92
100
AcDbEntity
  8
C4
100
AcDbCircle
 10
475.0377327309841
 20
727.1023441098398
 30
0.0
 40
2.0
  0
LINE
  5
651
330
A92
100
AcDbEntity
  8
C4
100
AcDbLine
 10
590.5997072033035
 20
718.1475630738848
 30
0.0
 11
584.8269066826879
 21
723.9203635945003
 31
0.0
  0
ARC
  5
652
330
A92
100
AcDbEntity
  8
C4
100
AcDbCircle
 10
588.0088871980271
 20
727.1023441098398
 30
0.0
 40
4.5
100
AcDbArc
 50
44.99999999999515
 51
224.9999999999952
  0
CIRCLE
  5
653
330
A92
100
AcDbEntity
  8
C4
100
AcDbCircle
 10
588.0088871980271
 20
727.1023441098398
 30
0.0
 40
2.0
  0
LINE
  5
654
330
A92
100
AcDbEntity
  8
C4
100
AcDbLine
 10
662.2233099645056
 20
751.9326086051871
 30
0.0
 11
662.2233099645056
 21
692.5879213433618
 31
0.0
  0
LINE
  5
655
330
A92
100
AcDbEntity
  8
C4
100
AcDbLine
 10
664.5899188047779
 20
745.2615685732014
 30
0.0
 11
664.5899188047779
 21
692.5879213433618
 31
0.0
  0
LINE
  5
656
330
A92
100
AcDbEntity
  8
C4
100
AcDbLine
 10
680.2846057090176
 20
731.0175444947287
 30
0.0
 11
680.2846057090176
 21
692.5879213433618
 31
0.0
  0
LINE
  5
657
330
A92
100
AcDbEntity
  8
C4
100
AcDbLine
 10
670.9306345516161
 20
736.8195725479838
 30
0.0
 11
670.9306345516162
 21
692.587921343362
 31
0.0
  0
LINE
  5
658
330
A92
100
AcDbEntity
  8
C4
100
AcDbLine
 10
699.2233099645055
 20
731.7879213433618
 30
0.0
 11
699.2233099645055
 21
683.5879213433615
 31
0.0
  0
LINE
  5
659
330
A92
100
AcDbEntity
  8
C4
100
AcDbLine
 10
702.2233099645055
 20
729.7879213433618
 30
0.0
 11
702.2233099645055
 21
683.5879213433615
 31
0.0
  0
LINE
  5
65A
330
A92
100
AcDbEntity
  8
C4
100
AcDbLine
 10
696.2233099645056
 20
729.7879213433618
 30
0.0
 11
696.2233099645056
 21
683.5879213433615
 31
0.0
  0
LINE
  5
65B
330
A92
100
AcDbEntity
  8
C4
100
AcDbLine
 10
622.5233099645057
 20
653.3879213433613
 30
0.0
 11
622.5233099645054
 21
619.6879213433613
 31
0.0
  0
LINE
  5
65C
330
A92
100
AcDbEntity
  8
C4
100
AcDbLine
 10
623.5233099645055
 20
654.3879213433613
 30
0.0
 11
630.5233099645057
 21
654.3879213433613
 31
0.0
  0
ARC
  5
65D
330
A92
100
AcDbEntity
  8
C4
100
AcDbCircle
 10
623.5233099645055
 20
653.3879213433613
 30
0.0
 40
1.0
100
AcDbArc
 50
90.0
 51
180.0
  0
ARC
  5
65E
330
A92
100
AcDbEntity
  8
C4
100
AcDbCircle
 10
630.5233099645057
 20
653.3879213433613
 30
0.0
 40
1.0
100
AcDbArc
 50
0.0
 51
90.0
  0
LINE
  5
65F
330
A92
100
AcDbEntity
  8
C4
100
AcDbLine
 10
662.5233099645055
 20
692.5879213433618
 30
0.0
 11
696.2233099645056
 21
692.5879213433618
 31
0.0
  0
ARC
  5
660
330
A92
100
AcDbEntity
  8
C4
100
AcDbCircle
 10
662.5233099645055
 20
691.5879213433618
 30
0.0
 40
1.0
100
AcDbArc
 50
90.0
 51
180.0
  0
ARC
  5
661
330
A92
100
AcDbEntity
  8
C4
100
AcDbCircle
 10
662.5233099645055
 20
684.5879213433618
 30
0.0
 40
1.0
100
AcDbArc
 50
180.0
 51
270.0
  0
LINE
  5
662
330
A92
100
AcDbEntity
  8
C4
100
AcDbLine
 10
661.5233099645055
 20
691.5879213433618
 30
0.0
 11
661.5233099645055
 21
684.5879213433618
 31
0.0
  0
ARC
  5
663
330
A92
100
AcDbEntity
  8
C4
100
AcDbCircle
 10
690.7233099645057
 20
758.2879213433618
 30
0.0
 40
29.19999999999999
100
AcDbArc
 50
180.0
 51
270.0
  0
LINE
  5
664
330
A92
100
AcDbEntity
  8
C4
100
AcDbLine
 10
623.5233099645055
 20
729.0879213433613
 30
0.0
 11
630.5233099645057
 21
729.0879213433613
 31
0.0
  0
LINE
  5
665
330
A92
100
AcDbEntity
  8
C4
100
AcDbLine
 10
613.3233099645056
 20
729.7879213433613
 30
0.0
 11
622.5693707630887
 21
729.7879213433613
 31
0.0
  0
LINE
  5
666
330
A92
100
AcDbEntity
  8
C4
100
AcDbLine
 10
613.3233099645056
 20
732.1545301836331
 30
0.0
 11
622.5693707630887
 21
732.1545301836331
 31
0.0
  0
ARC
  5
667
330
A92
100
AcDbEntity
  8
C4
100
AcDbCircle
 10
623.5233099645055
 20
730.0879213433614
 30
0.0
 40
1.0
100
AcDbArc
 50
180.0
 51
270.0
  0
LINE
  5
668
330
A92
100
AcDbEntity
  8
C4
100
AcDbLine
 10
613.3233099645056
 20
738.495245930472
 30
0.0
 11
622.5693707630887
 21
738.495245930472
 31
0.0
  0
LINE
  5
669
330
A92
100
AcDbEntity
  8
C4
100
AcDbLine
 10
613.3233099645056
 20
747.8492170878732
 30
0.0
 11
622.5693707630887
 21
747.8492170878732
 31
0.0
  0
ARC
  5
66A
330
A92
100
AcDbEntity
  8
C4
100
AcDbCircle
 10
630.5233099645057
 20
730.0879213433614
 30
0.0
 40
1.0
100
AcDbArc
 50
270.0
 51
0.0
  0
LINE
  5
66B
330
A92
100
AcDbEntity
  8
C4
100
AcDbLine
 10
661.5233099645056
 20
783.5879213433615
 30
0.0
 11
661.5233099645056
 21
758.2879213433618
 31
0.0
  0
LINE
  5
66C
330
A92
100
AcDbEntity
  8
C4
100
AcDbLine
 10
665.7233099645055
 20
758.0879213433616
 30
0.0
 11
665.7233099645055
 21
783.5879213433615
 31
0.0
  0
ARC
  5
66D
330
A92
100
AcDbEntity
  8
C4
100
AcDbCircle
 10
690.7233099645057
 20
758.0879213433616
 30
0.0
 40
25.0
100
AcDbArc
 50
180.0
 51
270.0
  0
LINE
  5
66E
330
A92
100
AcDbEntity
  8
C4
100
AcDbLine
 10
702.2233099645055
 20
729.7879213433618
 30
0.0
 11
699.2233099645055
 21
730.7879213433619
 31
0.0
  0
LINE
  5
66F
330
A92
100
AcDbEntity
  8
C4
100
AcDbLine
 10
715.2233099645055
 20
733.0879213433616
 30
0.0
 11
690.7233099645055
 21
733.0879213433616
 31
0.0
  0
LINE
  5
670
330
A92
100
AcDbEntity
  8
C4
100
AcDbLine
 10
699.2233099645055
 20
731.7879213433618
 30
0.0
 11
694.2233099645055
 21
731.7879213433618
 31
0.0
  0
LINE
  5
671
330
A92
100
AcDbEntity
  8
C4
100
AcDbLine
 10
694.2233099645055
 20
731.7879213433618
 30
0.0
 11
694.2233099645055
 21
733.0879213433616
 31
0.0
  0
LINE
  5
672
330
A92
100
AcDbEntity
  8
C4
100
AcDbLine
 10
696.2233099645056
 20
729.0879213433616
 30
0.0
 11
690.7233099645055
 21
729.0879213433616
 31
0.0
  0
LINE
  5
673
330
A92
100
AcDbEntity
  8
C4
100
AcDbLine
 10
696.2233099645056
 20
729.7879213433618
 30
0.0
 11
699.2233099645055
 21
730.7879213433619
 31
0.0
  0
LINE
  5
674
330
A92
100
AcDbEntity
  8
C4
100
AcDbLine
 10
702.2233099645055
 20
729.0879213433616
 30
0.0
 11
714.5233099645056
 21
729.0879213433616
 31
0.0
  0
LINE
  5
675
330
A92
100
AcDbEntity
  8
C4
100
AcDbLine
 10
665.7233099645055
 20
809.0879213433616
 30
0.0
 11
665.7233099645055
 21
783.5879213433615
 31
0.0
  0
LINE
  5
676
330
A92
100
AcDbEntity
  8
C4
100
AcDbLine
 10
661.5233099645056
 20
783.5879213433615
 30
0.0
 11
661.5233099645056
 21
808.8879213433617
 31
0.0
  0
TEXT
  5
677
330
A92
100
AcDbEntity
  8
1外形線
100
AcDbText
 10
431.5233100968404
 20
963.4016618476575
 30
0.0
 40
10.0
  1
ST-100
  7
KANJI
100
AcDbText
  0
TEXT
  5
678
330
A92
100
AcDbEntity
  8
1外形線
100
AcDbText
 10
431.5233100968404
 20
1394.646889545514
 30
0.0
 40
10.0
  1
ST-77
  7
KANJI
100
AcDbText
  0
ARC
  5
679
330
A92
100
AcDbEntity
  8
C4
100
AcDbCircle
 10
476.5233099645057
 20
829.5879213433616
 30
0.0
 40
4.5
100
AcDbArc
 50
180.0
 51
0.0
  0
LINE
  5
67A
330
A92
100
AcDbEntity
  8
C4
100
AcDbLine
 10
531.5233099645057
 20
819.3266255988493
 30
0.0
 11
440.4772491659226
 21
819.3266255988493
 31
0.0
  0
LINE
  5
67B
330
A92
100
AcDbEntity
  8
C4
100
AcDbLine
 10
440.4772491659226
 20
837.3879213433616
 30
0.0
 11
531.5233099645057
 21
837.3879213433616
 31
0.0
  0
LINE
  5
67C
330
A92
100
AcDbEntity
  8
1外形線
100
AcDbLine
 10
474.2923459996528
 20
1103.234490075123
 30
0.0
 11
468.7855721254757
 21
1103.234490075123
 31
0.0
  0
ARC
  5
67D
330
A92
100
AcDbEntity
  8
1外形線
100
AcDbCircle
 10
487.9014357012707
 20
1097.353694231736
 30
0.0
 40
20.0
100
AcDbArc
 50
131.266758781903
 51
176.1354317575977
  0
ARC
  5
67E
330
A92
100
AcDbEntity
  8
1外形線
100
AcDbCircle
 10
498.5233099645057
 20
1077.701660409997
 30
0.0
 40
22.0
100
AcDbArc
 50
180.0
 51
270.0
  0
ARC
  5
67F
330
A92
100
AcDbEntity
  8
1外形線
100
AcDbCircle
 10
497.5233099645057
 20
1078.401660409997
 30
0.0
 40
25.0
100
AcDbArc
 50
180.0
 51
270.0
  0
ARC
  5
680
330
A92
100
AcDbEntity
  8
1外形線
100
AcDbCircle
 10
481.3386143077202
 20
1095.584964285335
 30
0.0
 40
20.0
100
AcDbArc
 50
112.6921712734244
 51
171.0347845243317
  0
LINE
  5
681
330
A92
100
AcDbEntity
  8
1外形線
100
AcDbLine
 10
488.0858910010102
 20
1055.251387769973
 30
0.0
 11
437.5233099645057
 21
1055.251387769973
 31
0.0
  0
LINE
  5
682
330
A92
100
AcDbEntity
  8
1外形線
100
AcDbLine
 10
480.0530716345908
 20
1060.518965627164
 30
0.0
 11
437.5233099645057
 21
1060.518965627164
 31
0.0
  0
LINE
  5
683
330
A92
100
AcDbEntity
  8
1外形線
100
AcDbLine
 10
431.5233099645057
 20
1053.401660409997
 30
0.0
 11
514.0233099645057
 21
1053.401660409997
 31
0.0
  0
LINE
  5
684
330
A92
100
AcDbEntity
  8
1外形線
100
AcDbLine
 10
474.6100855898708
 20
1068.402453003525
 30
0.0
 11
437.5233099645057
 21
1068.402453003525
 31
0.0
  0
LINE
  5
685
330
A92
100
AcDbEntity
  8
1外形線
100
AcDbLine
 10
431.5233099645057
 20
1096.701660409997
 30
0.0
 11
472.5233099645057
 21
1096.701660409997
 31
0.0
  0
LINE
  5
686
330
A92
100
AcDbEntity
  8
1外形線
100
AcDbLine
 10
472.5233099645057
 20
1090.701660409997
 30
0.0
 11
431.5233099645057
 21
1090.701660409997
 31
0.0
  0
LINE
  5
687
330
A92
100
AcDbEntity
  8
1外形線
100
AcDbLine
 10
474.6233099645055
 20
1093.701660409998
 30
0.0
 11
431.5233099645057
 21
1093.701660409998
 31
0.0
  0
LINE
  5
688
330
A92
100
AcDbEntity
  8
1外形線
100
AcDbLine
 10
488.2534085282982
 20
1118.009450365108
 30
0.0
 11
437.5233099645057
 21
1118.009450365108
 31
0.0
  0
LINE
  5
689
330
A92
100
AcDbEntity
  8
1外形線
100
AcDbLine
 10
494.2483697105472
 20
1120.001660409997
 30
0.0
 11
437.4772491659227
 21
1120.001660409997
 31
0.0
  0
ARC
  5
68A
330
A92
100
AcDbEntity
  8
1外形線
100
AcDbCircle
 10
500.2363361144501
 20
1092.703137981336
 30
0.0
 40
28.0
100
AcDbArc
 50
89.41138035342167
 51
171.789844140658
  0
ARC
  5
68B
330
A92
100
AcDbEntity
  8
1外形線
100
AcDbCircle
 10
476.5233099645057
 20
1266.201660409997
 30
0.0
 40
4.5
100
AcDbArc
 50
180.0
 51
0.0
  0
ARC
  5
68C
330
A92
100
AcDbEntity
  8
1外形線
100
AcDbCircle
 10
470.5377327309841
 20
1189.716083176475
 30
0.0
 40
4.5
100
AcDbArc
 50
315.0000000000048
 51
135.0000000000048
  0
ARC
  5
68D
330
A92
100
AcDbEntity
  8
1外形線
100
AcDbCircle
 10
445.2233099645057
 20
1164.401660409997
 30
0.0
 40
29.81864526865672
100
AcDbArc
 50
0.0
 51
36.32020129336709
  0
LINE
  5
68E
330
A92
100
AcDbEntity
  8
1外形線
100
AcDbLine
 10
467.9469127257079
 20
1180.76130214052
 30
0.0
 11
473.7197132463234
 21
1186.534102661135
 31
0.0
  0
ARC
  5
68F
330
A92
100
AcDbEntity
  8
1外形線
100
AcDbCircle
 10
473.5233099645057
 20
1155.701660409997
 30
0.0
 40
1.0
100
AcDbArc
 50
90.0
 51
180.0
  0
ARC
  5
690
330
A92
100
AcDbEntity
  8
1外形線
100
AcDbCircle
 10
473.5233099645057
 20
1151.701660409997
 30
0.0
 40
1.0
100
AcDbArc
 50
180.0
 51
270.0
  0
ARC
  5
691
330
A92
100
AcDbEntity
  8
1外形線
100
AcDbCircle
 10
445.2233099645057
 20
1164.401660409997
 30
0.0
 40
44.76421285244972
100
AcDbArc
 50
0.0
 51
90.0
  0
ARC
  5
692
330
A92
100
AcDbEntity
  8
1外形線
100
AcDbCircle
 10
445.2233099645057
 20
1164.401660409997
 30
0.0
 40
28.0
100
AcDbArc
 50
0.0
 51
90.0
  0
LINE
  5
693
330
A92
100
AcDbEntity
  8
1外形線
100
AcDbLine
 10
437.4772491659227
 20
1274.001660409996
 30
0.0
 11
514.0233099645057
 21
1274.001660409996
 31
0.0
  0
LINE
  5
694
330
A92
100
AcDbEntity
  8
1外形線
100
AcDbLine
 10
514.0233099645057
 20
1257.236687659282
 30
0.0
 11
437.5233099645057
 21
1257.236687659283
 31
0.0
  0
LINE
  5
695
330
A92
100
AcDbEntity
  8
1外形線
100
AcDbLine
 10
381.5233099645057
 20
1424.646888107854
 30
0.0
 11
381.5233099645057
 21
1023.401660409997
 31
0.0
  0
LINE
  5
696
330
A92
100
AcDbEntity
  8
C4
100
AcDbLine
 10
472.1157298922183
 20
828.6805967562509
 30
0.0
 11
440.4772491659226
 21
828.6805967562509
 31
0.0
  0
LINE
  5
697
330
A92
100
AcDbEntity
  8
C4
100
AcDbLine
 10
472.0233099645056
 20
835.0213125030897
 30
0.0
 11
440.4772491659226
 21
835.0213125030895
 31
0.0
  0
ARC
  5
698
330
A92
100
AcDbEntity
  8
C4
100
AcDbCircle
 10
439.5233099645057
 20
837.0879213433616
 30
0.0
 40
1.0
100
AcDbArc
 50
0.0
 51
90.0
  0
ARC
  5
699
330
A92
100
AcDbEntity
  8
C4
100
AcDbCircle
 10
432.5233099645057
 20
837.0879213433616
 30
0.0
 40
1.0
100
AcDbArc
 50
90.0
 51
180.0
  0
LINE
  5
69A
330
A92
100
AcDbEntity
  8
C4
100
AcDbLine
 10
432.5233099645057
 20
838.0879213433615
 30
0.0
 11
439.5233099645057
 21
838.0879213433615
 31
0.0
  0
LINE
  5
69B
330
A92
100
AcDbEntity
  8
C4
100
AcDbLine
 10
472.0233099645056
 20
829.5879213433616
 30
0.0
 11
472.0233099645056
 21
837.3879213433616
 31
0.0
  0
LINE
  5
69C
330
A92
100
AcDbEntity
  8
1外形線
100
AcDbLine
 10
431.5233099645057
 20
1053.401660409997
 30
0.0
 11
431.5233099645057
 21
1119.701660409997
 31
0.0
  0
LINE
  5
69D
330
A92
100
AcDbEntity
  8
1外形線
100
AcDbLine
 10
437.5233099645057
 20
1090.701660409997
 30
0.0
 11
437.5233099645057
 21
1053.401660409997
 31
0.0
  0
LINE
  5
69E
330
A92
100
AcDbEntity
  8
1外形線
100
AcDbLine
 10
470.0973216698371
 20
1112.126830559413
 30
0.0
 11
437.5233099645057
 21
1112.126830559413
 31
0.0
  0
LINE
  5
69F
330
A92
100
AcDbEntity
  8
1外形線
100
AcDbLine
 10
462.8593081737938
 20
1103.234490075123
 30
0.0
 11
437.5233099645057
 21
1103.234490075123
 31
0.0
  0
LINE
  5
6A0
330
A92
100
AcDbEntity
  8
1外形線
100
AcDbLine
 10
437.5233099645057
 20
1119.701660409997
 30
0.0
 11
437.5233099645057
 21
1096.701660409997
 31
0.0
  0
ARC
  5
6A1
330
A92
100
AcDbEntity
  8
1外形線
100
AcDbCircle
 10
432.5233099645057
 20
1119.701660409997
 30
0.0
 40
1.0
100
AcDbArc
 50
90.0
 51
180.0
  0
LINE
  5
6A2
330
A92
100
AcDbEntity
  8
1外形線
100
AcDbLine
 10
432.5233099645057
 20
1120.701660409997
 30
0.0
 11
436.5233099645057
 21
1120.701660409997
 31
0.0
  0
ARC
  5
6A3
330
A92
100
AcDbEntity
  8
1外形線
100
AcDbCircle
 10
436.5233099645057
 20
1119.701660409997
 30
0.0
 40
1.0
100
AcDbArc
 50
0.0
 51
90.0
  0
LINE
  5
6A4
330
A92
100
AcDbEntity
  8
1外形線
100
AcDbLine
 10
467.9469127257079
 20
1098.701660410003
 30
0.0
 11
461.582951695029
 21
1098.701660410003
 31
0.0
  0
LINE
  5
6A5
330
A92
100
AcDbEntity
  8
1外形線
100
AcDbLine
 10
431.5233099645057
 20
1273.701660409997
 30
0.0
 11
431.5233099645057
 21
1192.701660409997
 31
0.0
  0
LINE
  5
6A6
330
A92
100
AcDbEntity
  8
1外形線
100
AcDbLine
 10
437.5233099645057
 20
1192.701660409997
 30
0.0
 11
437.5233099645057
 21
1273.701660409997
 31
0.0
  0
ARC
  5
6A7
330
A92
100
AcDbEntity
  8
1外形線
100
AcDbCircle
 10
445.2233099645057
 20
1164.401660409997
 30
0.0
 40
35.82190264872312
100
AcDbArc
 50
52.21664618445485
 51
90.0
  0
ARC
  5
6A8
330
A92
100
AcDbEntity
  8
1外形線
100
AcDbCircle
 10
445.2233099645057
 20
1164.401660409997
 30
0.0
 40
29.81864526865672
100
AcDbArc
 50
53.67979870663081
 51
90.0
  0
LINE
  5
6A9
330
A92
100
AcDbEntity
  8
1外形線
100
AcDbLine
 10
445.2233099645057
 20
1192.401660409997
 30
0.0
 11
437.4772491659227
 21
1192.401660409997
 31
0.0
  0
ARC
  5
6AA
330
A92
100
AcDbEntity
  8
1外形線
100
AcDbCircle
 10
432.5233099645057
 20
1192.701660409997
 30
0.0
 40
1.0
100
AcDbArc
 50
180.0
 51
270.0
  0
LINE
  5
6AB
330
A92
100
AcDbEntity
  8
1外形線
100
AcDbLine
 10
432.5233099645057
 20
1191.701660409996
 30
0.0
 11
436.5233099645057
 21
1191.701660409996
 31
0.0
  0
ARC
  5
6AC
330
A92
100
AcDbEntity
  8
1外形線
100
AcDbCircle
 10
436.5233099645057
 20
1192.701660409997
 30
0.0
 40
1.0
100
AcDbArc
 50
270.0
 51
0.0
  0
CIRCLE
  5
6AD
330
A92
100
AcDbEntity
  8
1外形線
100
AcDbCircle
 10
470.5377327309841
 20
1189.716083176475
 30
0.0
 40
1.7
  0
LINE
  5
6AE
330
A92
100
AcDbEntity
  8
1外形線
100
AcDbLine
 10
461.582951695029
 20
1187.125263171199
 30
0.0
 11
467.3557522156446
 21
1192.898063691814
 31
0.0
  0
LINE
  5
6AF
330
A92
100
AcDbEntity
  8
1外形線
100
AcDbLine
 10
445.2233099645055
 20
1209.16663316071
 30
0.0
 11
437.5233099645057
 21
1209.16663316071
 31
0.0
  0
LINE
  5
6B0
330
A92
100
AcDbEntity
  8
1外形線
100
AcDbLine
 10
445.2233099645055
 20
1200.224322956984
 30
0.0
 11
437.5233099645057
 21
1200.224322956983
 31
0.0
  0
LINE
  5
6B1
330
A92
100
AcDbEntity
  8
1外形線
100
AcDbLine
 10
445.2233099645057
 20
1194.220888875686
 30
0.0
 11
437.5233099645057
 21
1194.220888875686
 31
0.0
  0
LINE
  5
6B2
330
A92
100
AcDbEntity
  8
1外形線
100
AcDbLine
 10
472.0233670305381
 20
1266.17899786301
 30
0.0
 11
437.5233099645057
 21
1266.17899786301
 31
0.0
  0
LINE
  5
6B3
330
A92
100
AcDbEntity
  8
1外形線
100
AcDbLine
 10
472.0233099645056
 20
1272.182431944307
 30
0.0
 11
437.5233099645057
 21
1272.182431944308
 31
0.0
  0
ARC
  5
6B4
330
A92
100
AcDbEntity
  8
1外形線
100
AcDbCircle
 10
432.5233099645057
 20
1273.701660409997
 30
0.0
 40
1.0
100
AcDbArc
 50
90.0
 51
180.0
  0
LINE
  5
6B5
330
A92
100
AcDbEntity
  8
1外形線
100
AcDbLine
 10
436.5233099645057
 20
1274.701660409997
 30
0.0
 11
432.5233099645057
 21
1274.701660409997
 31
0.0
  0
ARC
  5
6B6
330
A92
100
AcDbEntity
  8
1外形線
100
AcDbCircle
 10
436.5233099645057
 20
1273.701660409997
 30
0.0
 40
1.0
100
AcDbArc
 50
0.0
 51
90.0
  0
LINE
  5
6B7
330
A92
100
AcDbEntity
  8
1外形線
100
AcDbLine
 10
472.0233099645056
 20
1274.001660409996
 30
0.0
 11
472.0233099645056
 21
1266.201660409997
 31
0.0
  0
LINE
  5
6B8
330
A92
100
AcDbEntity
  8
C4
100
AcDbLine
 10
591.0233099645057
 20
835.0213125030897
 30
0.0
 11
622.5693707630887
 21
835.0213125030895
 31
0.0
  0
LINE
  5
6B9
330
A92
100
AcDbEntity
  8
C4
100
AcDbLine
 10
590.930890036793
 20
828.6805967562509
 30
0.0
 11
622.5693707630887
 21
828.6805967562509
 31
0.0
  0
LINE
  5
6BA
330
A92
100
AcDbEntity
  8
C4
100
AcDbLine
 10
622.5693707630887
 20
837.3879213433616
 30
0.0
 11
531.5233099645057
 21
837.3879213433616
 31
0.0
  0
LINE
  5
6BB
330
A92
100
AcDbEntity
  8
C4
100
AcDbLine
 10
531.5233099645057
 20
819.3266255988493
 30
0.0
 11
622.5693707630887
 21
819.3266255988493
 31
0.0
  0
LINE
  5
6BC
330
A92
100
AcDbEntity
  8
1外形線
100
AcDbLine
 10
596.5233099645057
 20
1053.401660409997
 30
0.0
 11
514.0233099645057
 21
1053.401660409997
 31
0.0
  0
LINE
  5
6BD
330
A92
100
AcDbEntity
  8
1外形線
100
AcDbLine
 10
553.4233099645057
 20
1093.701660409998
 30
0.0
 11
596.5233099645057
 21
1093.701660409998
 31
0.0
  0
LINE
  5
6BE
330
A92
100
AcDbEntity
  8
1外形線
100
AcDbLine
 10
555.5233099645057
 20
1090.701660409997
 30
0.0
 11
596.5233099645057
 21
1090.701660409997
 31
0.0
  0
LINE
  5
6BF
330
A92
100
AcDbEntity
  8
1外形線
100
AcDbLine
 10
596.5233099645057
 20
1096.701660409997
 30
0.0
 11
555.5233099645057
 21
1096.701660409997
 31
0.0
  0
LINE
  5
6C0
330
A92
100
AcDbEntity
  8
1外形線
100
AcDbLine
 10
595.5233099645057
 20
1120.701660409997
 30
0.0
 11
591.5233099645057
 21
1120.701660409997
 31
0.0
  0
LINE
  5
6C1
330
A92
100
AcDbEntity
  8
C4
100
AcDbLine
 10
531.5233099645057
 20
835.0213125030901
 30
0.0
 11
582.0233099645057
 21
835.0213125030901
 31
0.0
  0
LINE
  5
6C2
330
A92
100
AcDbEntity
  8
C4
100
AcDbLine
 10
531.5233099645057
 20
828.6805967562509
 30
0.0
 11
582.1157298922182
 21
828.6805967562509
 31
0.0
  0
LINE
  5
6C3
330
A92
100
AcDbEntity
  8
C4
100
AcDbLine
 10
531.5233099645057
 20
828.6805967562509
 30
0.0
 11
480.930890036793
 21
828.6805967562509
 31
0.0
  0
LINE
  5
6C4
330
A92
100
AcDbEntity
  8
C4
100
AcDbLine
 10
531.5233099645057
 20
835.0213125030901
 30
0.0
 11
481.0233099645057
 21
835.0213125030901
 31
0.0
  0
LINE
  5
6C5
330
A92
100
AcDbEntity
  8
C4
100
AcDbLine
 10
481.0233099645057
 20
829.5879213433616
 30
0.0
 11
481.0233099645057
 21
837.3879213433616
 31
0.0
  0
CIRCLE
  5
6C6
330
A92
100
AcDbEntity
  8
C4
100
AcDbCircle
 10
476.5233099645057
 20
829.5879213433616
 30
0.0
 40
2.0
  0
LINE
  5
6C7
330
A92
100
AcDbEntity
  8
C4
100
AcDbLine
 10
582.0233099645057
 20
829.5879213433616
 30
0.0
 11
582.0233099645057
 21
837.3879213433616
 31
0.0
  0
LINE
  5
6C8
330
A92
100
AcDbEntity
  8
C4
100
AcDbLine
 10
591.0233099645057
 20
829.5879213433616
 30
0.0
 11
591.0233099645057
 21
837.3879213433616
 31
0.0
  0
ARC
  5
6C9
330
A92
100
AcDbEntity
  8
C4
100
AcDbCircle
 10
586.5233099645057
 20
829.5879213433616
 30
0.0
 40
4.5
100
AcDbArc
 50
180.0
 51
0.0
  0
CIRCLE
  5
6CA
330
A92
100
AcDbEntity
  8
C4
100
AcDbCircle
 10
586.5233099645057
 20
829.5879213433616
 30
0.0
 40
2.0
  0
ARC
  5
6CB
330
A92
100
AcDbEntity
  8
1外形線
100
AcDbCircle
 10
529.5233099645058
 20
1077.701660409997
 30
0.0
 40
22.0
100
AcDbArc
 50
270.0
 51
0.0
  0
ARC
  5
6CC
330
A92
100
AcDbEntity
  8
1外形線
100
AcDbCircle
 10
530.5233099645057
 20
1078.401660409997
 30
0.0
 40
25.0
100
AcDbArc
 50
270.0
 51
0.0
  0
ARC
  5
6CD
330
A92
100
AcDbEntity
  8
1外形線
100
AcDbCircle
 10
527.2513687309772
 20
1092.712264050089
 30
0.0
 40
25.0
100
AcDbArc
 50
13.86150830652011
 51
91.66882373033661
  0
LINE
  5
6CE
330
A92
100
AcDbEntity
  8
1外形線
100
AcDbLine
 10
516.0233099645057
 20
1057.701660409997
 30
0.0
 11
538.6884613544173
 21
1057.701660409997
 31
0.0
  0
ARC
  5
6CF
330
A92
100
AcDbEntity
  8
1外形線
100
AcDbCircle
 10
527.8102838145614
 20
1092.703137981336
 30
0.0
 40
28.0
100
AcDbArc
 50
8.210155859342014
 51
90.58861964657832
  0
LINE
  5
6D0
330
A92
100
AcDbEntity
  8
1外形線
100
AcDbLine
 10
476.5233099645057
 20
1077.701660409997
 30
0.0
 11
476.5233099645057
 21
1098.701660410003
 31
0.0
  0
LINE
  5
6D1
330
A92
100
AcDbEntity
  8
1外形線
100
AcDbLine
 10
472.5233099645057
 20
1090.701660409997
 30
0.0
 11
472.5233099645057
 21
1078.401660409997
 31
0.0
  0
LINE
  5
6D2
330
A92
100
AcDbEntity
  8
1外形線
100
AcDbLine
 10
514.0233099645057
 20
1055.701660409997
 30
0.0
 11
498.5233099645057
 21
1055.701660409997
 31
0.0
  0
LINE
  5
6D3
330
A92
100
AcDbEntity
  8
1外形線
100
AcDbLine
 10
512.0233099645057
 20
1057.701660409997
 30
0.0
 11
489.358158574594
 21
1057.701660409997
 31
0.0
  0
LINE
  5
6D4
330
A92
100
AcDbEntity
  8
1外形線
100
AcDbLine
 10
514.0233099645057
 20
1055.701660409997
 30
0.0
 11
529.5233099645058
 21
1055.701660409997
 31
0.0
  0
LINE
  5
6D5
330
A92
100
AcDbEntity
  8
1外形線
100
AcDbLine
 10
512.0233099645057
 20
1058.701660409997
 30
0.0
 11
516.0233099645057
 21
1058.701660409997
 31
0.0
  0
LINE
  5
6D6
330
A92
100
AcDbEntity
  8
1外形線
  6
Continuous
100
AcDbLine
 10
512.0233099645057
 20
1055.701660409997
 30
0.0
 11
512.0233099645057
 21
1058.701660409997
 31
0.0
  0
LINE
  5
6D7
330
A92
100
AcDbEntity
  8
1外形線
  6
Continuous
100
AcDbLine
 10
516.0233099645057
 20
1055.701660409997
 30
0.0
 11
516.0233099645057
 21
1058.701660409997
 31
0.0
  0
LINE
  5
6D8
330
A92
100
AcDbEntity
  8
1外形線
100
AcDbLine
 10
500.5239848790641
 20
1120.701660409997
 30
0.0
 11
514.0233099645057
 21
1120.701660409997
 31
0.0
  0
LINE
  5
6D9
330
A92
100
AcDbEntity
  8
1外形線
100
AcDbLine
 10
501.5233099645057
 20
1117.701660409997
 30
0.0
 11
514.0233099645057
 21
1117.701660409997
 31
0.0
  0
ARC
  5
6DA
330
A92
100
AcDbEntity
  8
1外形線
100
AcDbCircle
 10
500.7952511980342
 20
1092.712264050089
 30
0.0
 40
25.0
100
AcDbArc
 50
88.33117626966338
 51
166.1384916934799
  0
LINE
  5
6DB
330
A92
100
AcDbEntity
  8
1外形線
100
AcDbLine
 10
476.5233099645057
 20
1098.701660409997
 30
0.0
 11
475.2233099645057
 21
1098.701660409997
 31
0.0
  0
LINE
  5
6DC
330
A92
100
AcDbEntity
  8
1外形線
100
AcDbLine
 10
473.2233099645057
 20
1096.701660409997
 30
0.0
 11
472.5233099645057
 21
1096.701660409997
 31
0.0
  0
LINE
  5
6DD
330
A92
100
AcDbEntity
  8
1外形線
100
AcDbLine
 10
474.0233099645056
 20
1093.701660409998
 30
0.0
 11
473.2233099645057
 21
1090.701660409997
 31
0.0
  0
LINE
  5
6DE
330
A92
100
AcDbEntity
  8
1外形線
100
AcDbLine
 10
473.2233099645057
 20
1090.701660409997
 30
0.0
 11
472.5233099645057
 21
1090.701660409997
 31
0.0
  0
LINE
  5
6DF
330
A92
100
AcDbEntity
  8
1外形線
100
AcDbLine
 10
475.2233099645057
 20
1093.701660409998
 30
0.0
 11
474.0233099645056
 21
1093.701660409998
 31
0.0
  0
LINE
  5
6E0
330
A92
100
AcDbEntity
  8
1外形線
100
AcDbLine
 10
475.2233099645057
 20
1098.701660409997
 30
0.0
 11
475.2233099645057
 21
1093.701660409998
 31
0.0
  0
LINE
  5
6E1
330
A92
100
AcDbEntity
  8
1外形線
100
AcDbLine
 10
474.0233099645056
 20
1093.701660409998
 30
0.0
 11
473.2233099645057
 21
1096.701660409997
 31
0.0
  0
ARC
  5
6E2
330
A92
100
AcDbEntity
  8
1外形線
100
AcDbCircle
 10
474.0377327309839
 20
1113.126830559413
 30
0.0
 40
1.0
100
AcDbArc
 50
310.3755992283571
 51
114.5015676702162
  0
LINE
  5
6E3
330
A92
100
AcDbEntity
  8
1外形線
100
AcDbLine
 10
480.0690317176704
 20
1112.126830559413
 30
0.0
 11
474.4198021561895
 21
1112.126830559413
 31
0.0
  0
LINE
  5
6E4
330
A92
100
AcDbEntity
  8
1外形線
100
AcDbLine
 10
527.5226350499474
 20
1120.701660409997
 30
0.0
 11
514.0233099645057
 21
1120.701660409997
 31
0.0
  0
LINE
  5
6E5
330
A92
100
AcDbEntity
  8
1外形線
100
AcDbLine
 10
526.5233099645057
 20
1117.701660409997
 30
0.0
 11
514.0233099645057
 21
1117.701660409997
 31
0.0
  0
LINE
  5
6E6
330
A92
100
AcDbEntity
  8
1外形線
100
AcDbLine
 10
590.5233099645057
 20
1090.701660409997
 30
0.0
 11
590.5233099645057
 21
1053.401660409997
 31
0.0
  0
LINE
  5
6E7
330
A92
100
AcDbEntity
  8
1外形線
100
AcDbLine
 10
551.5233099645057
 20
1077.701660409997
 30
0.0
 11
551.5233099645057
 21
1098.701660410003
 31
0.0
  0
LINE
  5
6E8
330
A92
100
AcDbEntity
  8
1外形線
100
AcDbLine
 10
555.5233099645057
 20
1090.701660409997
 30
0.0
 11
555.5233099645057
 21
1078.401660409997
 31
0.0
  0
LINE
  5
6E9
330
A92
100
AcDbEntity
  8
1外形線
100
AcDbLine
 10
547.9935482944206
 20
1060.518965627164
 30
0.0
 11
590.5233099645057
 21
1060.518965627164
 31
0.0
  0
LINE
  5
6EA
330
A92
100
AcDbEntity
  8
1外形線
100
AcDbLine
 10
539.9607289280011
 20
1055.251387769973
 30
0.0
 11
590.5233099645057
 21
1055.251387769973
 31
0.0
  0
LINE
  5
6EB
330
A92
100
AcDbEntity
  8
1外形線
100
AcDbLine
 10
553.4365343391405
 20
1068.402453003525
 30
0.0
 11
590.5233099645057
 21
1068.402453003525
 31
0.0
  0
LINE
  5
6EC
330
A92
100
AcDbEntity
  8
1外形線
100
AcDbLine
 10
539.793211400713
 20
1118.009450365108
 30
0.0
 11
590.5233099645057
 21
1118.009450365108
 31
0.0
  0
LINE
  5
6ED
330
A92
100
AcDbEntity
  8
1外形線
100
AcDbLine
 10
533.798250218464
 20
1120.001660409997
 30
0.0
 11
590.5693707630887
 21
1120.001660409997
 31
0.0
  0
ARC
  5
6EE
330
A92
100
AcDbEntity
  8
1外形線
100
AcDbCircle
 10
546.7080056212913
 20
1095.584964285335
 30
0.0
 40
20.0
100
AcDbArc
 50
8.965215475668225
 51
67.30782872657556
  0
LINE
  5
6EF
330
A92
100
AcDbEntity
  8
1外形線
100
AcDbLine
 10
560.0997072033035
 20
1098.701660410003
 30
0.0
 11
566.4636682339824
 21
1098.701660410003
 31
0.0
  0
LINE
  5
6F0
330
A92
100
AcDbEntity
  8
1外形線
100
AcDbLine
 10
557.9492982591744
 20
1112.126830559413
 30
0.0
 11
590.5233099645057
 21
1112.126830559413
 31
0.0
  0
ARC
  5
6F1
330
A92
100
AcDbEntity
  8
1外形線
100
AcDbCircle
 10
540.1451842277409
 20
1097.353694231736
 30
0.0
 40
20.0
100
AcDbArc
 50
3.864568242402297
 51
48.73324121809698
  0
LINE
  5
6F2
330
A92
100
AcDbEntity
  8
1外形線
100
AcDbLine
 10
553.7542739293586
 20
1103.234490075123
 30
0.0
 11
559.2610478035356
 21
1103.234490075123
 31
0.0
  0
LINE
  5
6F3
330
A92
100
AcDbEntity
  8
1外形線
100
AcDbLine
 10
554.8233099645056
 20
1096.701660409997
 30
0.0
 11
555.5233099645057
 21
1096.701660409997
 31
0.0
  0
LINE
  5
6F4
330
A92
100
AcDbEntity
  8
1外形線
100
AcDbLine
 10
554.0233099645057
 20
1093.701660409998
 30
0.0
 11
554.8233099645058
 21
1090.701660409997
 31
0.0
  0
LINE
  5
6F5
330
A92
100
AcDbEntity
  8
1外形線
100
AcDbLine
 10
554.8233099645058
 20
1090.701660409997
 30
0.0
 11
555.5233099645057
 21
1090.701660409997
 31
0.0
  0
LINE
  5
6F6
330
A92
100
AcDbEntity
  8
1外形線
100
AcDbLine
 10
552.8233099645058
 20
1093.701660409998
 30
0.0
 11
554.0233099645057
 21
1093.701660409998
 31
0.0
  0
LINE
  5
6F7
330
A92
100
AcDbEntity
  8
1外形線
100
AcDbLine
 10
552.8233099645058
 20
1098.701660409997
 30
0.0
 11
552.8233099645058
 21
1093.701660409998
 31
0.0
  0
LINE
  5
6F8
330
A92
100
AcDbEntity
  8
1外形線
100
AcDbLine
 10
554.0233099645057
 20
1093.701660409998
 30
0.0
 11
554.8233099645056
 21
1096.701660409997
 31
0.0
  0
LINE
  5
6F9
330
A92
100
AcDbEntity
  8
1外形線
100
AcDbLine
 10
551.5233099645057
 20
1098.701660409997
 30
0.0
 11
552.8233099645058
 21
1098.701660409997
 31
0.0
  0
LINE
  5
6FA
330
A92
100
AcDbEntity
  8
1外形線
100
AcDbLine
 10
547.9775882113408
 20
1112.126830559413
 30
0.0
 11
553.6268177728219
 21
1112.126830559413
 31
0.0
  0
ARC
  5
6FB
330
A92
100
AcDbEntity
  8
1外形線
100
AcDbCircle
 10
554.0088871980275
 20
1113.126830559413
 30
0.0
 40
1.0
100
AcDbArc
 50
65.49843232978375
 51
229.6244007716429
  0
LINE
  5
6FC
330
A92
100
AcDbEntity
  8
1外形線
100
AcDbLine
 10
590.5233099645057
 20
1119.701660409997
 30
0.0
 11
590.5233099645057
 21
1096.701660409997
 31
0.0
  0
LINE
  5
6FD
330
A92
100
AcDbEntity
  8
1外形線
100
AcDbLine
 10
565.1873117552177
 20
1103.234490075123
 30
0.0
 11
590.5233099645057
 21
1103.234490075123
 31
0.0
  0
ARC
  5
6FE
330
A92
100
AcDbEntity
  8
1外形線
100
AcDbCircle
 10
591.5233099645057
 20
1119.701660409997
 30
0.0
 40
1.0
100
AcDbArc
 50
90.0
 51
180.0
  0
LINE
  5
6FF
330
A92
100
AcDbEntity
  8
C4
100
AcDbLine
 10
630.5233099645057
 20
838.0879213433615
 30
0.0
 11
623.5233099645055
 21
838.0879213433615
 31
0.0
  0
ARC
  5
700
330
A92
100
AcDbEntity
  8
C4
100
AcDbCircle
 10
623.5233099645055
 20
837.0879213433616
 30
0.0
 40
1.0
100
AcDbArc
 50
90.0
 51
180.0
  0
ARC
  5
701
330
A92
100
AcDbEntity
  8
C4
100
AcDbCircle
 10
630.5233099645057
 20
837.0879213433616
 30
0.0
 40
1.0
100
AcDbArc
 50
0.0
 51
90.0
  0
LINE
  5
702
330
A92
100
AcDbEntity
  8
C4
100
AcDbLine
 10
702.2233099645055
 20
837.3879213433617
 30
0.0
 11
699.2233099645055
 21
836.3879213433616
 31
0.0
  0
LINE
  5
703
330
A92
100
AcDbEntity
  8
C4
100
AcDbLine
 10
715.2233099645055
 20
834.0879213433616
 30
0.0
 11
690.7233099645055
 21
834.0879213433616
 31
0.0
  0
LINE
  5
704
330
A92
100
AcDbEntity
  8
C4
100
AcDbLine
 10
696.2233099645056
 20
838.0879213433615
 30
0.0
 11
690.7233099645055
 21
838.0879213433615
 31
0.0
  0
LINE
  5
705
330
A92
100
AcDbEntity
  8
C4
100
AcDbLine
 10
696.2233099645056
 20
837.3879213433617
 30
0.0
 11
696.2233099645056
 21
838.0879213433615
 31
0.0
  0
LINE
  5
706
330
A92
100
AcDbEntity
  8
C4
100
AcDbLine
 10
696.2233099645056
 20
837.3879213433617
 30
0.0
 11
699.2233099645055
 21
836.3879213433616
 31
0.0
  0
LINE
  5
707
330
A92
100
AcDbEntity
  8
C4
100
AcDbLine
 10
699.2233099645055
 20
835.3879213433614
 30
0.0
 11
694.2233099645055
 21
835.3879213433614
 31
0.0
  0
LINE
  5
708
330
A92
100
AcDbEntity
  8
C4
100
AcDbLine
 10
694.2233099645055
 20
835.3879213433614
 30
0.0
 11
694.2233099645055
 21
834.0879213433616
 31
0.0
  0
LINE
  5
709
330
A92
100
AcDbEntity
  8
C4
100
AcDbLine
 10
699.2233099645055
 20
836.3879213433616
 30
0.0
 11
699.2233099645055
 21
835.3879213433614
 31
0.0
  0
LINE
  5
70A
330
A92
100
AcDbEntity
  8
C4
100
AcDbLine
 10
702.2233099645055
 20
837.3879213433617
 30
0.0
 11
702.2233099645055
 21
838.0879213433615
 31
0.0
  0
LINE
  5
70B
330
A92
100
AcDbEntity
  8
C4
100
AcDbLine
 10
702.2233099645055
 20
838.0879213433615
 30
0.0
 11
714.5233099645056
 21
838.0879213433615
 31
0.0
  0
LINE
  5
70C
330
A92
100
AcDbEntity
  8
1外形線
100
AcDbLine
 10
596.5233099645057
 20
1053.401660409997
 30
0.0
 11
596.5233099645057
 21
1119.701660409997
 31
0.0
  0
ARC
  5
70D
330
A92
100
AcDbEntity
  8
1外形線
100
AcDbCircle
 10
595.5233099645057
 20
1119.701660409997
 30
0.0
 40
1.0
100
AcDbArc
 50
0.0
 51
90.0
  0
LINE
  5
70E
330
A92
100
AcDbEntity
  8
1外形線
100
AcDbLine
 10
591.5233099645057
 20
1274.701660409997
 30
0.0
 11
595.5233099645057
 21
1274.701660409997
 31
0.0
  0
LINE
  5
70F
330
A92
100
AcDbEntity
  8
1外形線
100
AcDbLine
 10
595.5233099645057
 20
1191.701660409996
 30
0.0
 11
591.5233099645057
 21
1191.701660409996
 31
0.0
  0
LINE
  5
710
330
A92
100
AcDbEntity
  8
1外形線
100
AcDbLine
 10
590.5233099645057
 20
1192.701660409997
 30
0.0
 11
590.5233099645057
 21
1273.701660409997
 31
0.0
  0
LINE
  5
711
330
A92
100
AcDbEntity
  8
1外形線
100
AcDbLine
 10
554.5233099645058
 20
1156.701660409997
 30
0.0
 11
514.0233099645057
 21
1156.701660409997
 31
0.0
  0
LINE
  5
712
330
A92
100
AcDbEntity
  8
1外形線
100
AcDbLine
 10
514.0233099645057
 20
1150.701660409997
 30
0.0
 11
554.5233099645058
 21
1150.701660409997
 31
0.0
  0
ARC
  5
713
330
A92
100
AcDbEntity
  8
1外形線
100
AcDbCircle
 10
582.8233099645055
 20
1164.401660409997
 30
0.0
 40
44.76421285244972
100
AcDbArc
 50
90.0
 51
180.0
  0
LINE
  5
714
330
A92
100
AcDbEntity
  8
1外形線
100
AcDbLine
 10
514.0233099645057
 20
1150.701660409997
 30
0.0
 11
473.5233099645057
 21
1150.701660409997
 31
0.0
  0
LINE
  5
715
330
A92
100
AcDbEntity
  8
1外形線
100
AcDbLine
 10
473.5233099645057
 20
1156.701660409997
 30
0.0
 11
514.0233099645057
 21
1156.701660409997
 31
0.0
  0
ARC
  5
716
330
A92
100
AcDbEntity
  8
1外形線
100
AcDbCircle
 10
445.2233099645057
 20
1164.401660409997
 30
0.0
 40
35.82190264872312
100
AcDbArc
 50
0.0
 51
37.78335381553697
  0
LINE
  5
717
330
A92
100
AcDbEntity
  8
1外形線
100
AcDbLine
 10
472.5233099645057
 20
1151.701660409997
 30
0.0
 11
472.5233099645057
 21
1155.701660409997
 31
0.0
  0
LINE
  5
718
330
A92
100
AcDbEntity
  8
1外形線
100
AcDbLine
 10
475.0419552331623
 20
1156.701660409997
 30
0.0
 11
475.0419552331623
 21
1164.401660409997
 31
0.0
  0
LINE
  5
719
330
A92
100
AcDbEntity
  8
1外形線
100
AcDbLine
 10
473.2233099645057
 20
1156.655599611414
 30
0.0
 11
473.2233099645057
 21
1164.401660409997
 31
0.0
  0
LINE
  5
71A
330
A92
100
AcDbEntity
  8
1外形線
100
AcDbLine
 10
481.0452126132288
 20
1156.701660409997
 30
0.0
 11
481.0452126132286
 21
1164.401660409997
 31
0.0
  0
LINE
  5
71B
330
A92
100
AcDbEntity
  8
1外形線
100
AcDbLine
 10
489.9875228169553
 20
1156.701660409997
 30
0.0
 11
489.9875228169553
 21
1164.401660409997
 31
0.0
  0
ARC
  5
71C
330
A92
100
AcDbEntity
  8
1外形線
100
AcDbCircle
 10
582.8233099645055
 20
1164.401660409997
 30
0.0
 40
29.81864526865672
100
AcDbArc
 50
90.0
 51
126.3202012933692
  0
ARC
  5
71D
330
A92
100
AcDbEntity
  8
1外形線
100
AcDbCircle
 10
582.8233099645055
 20
1164.401660409997
 30
0.0
 40
35.82190264872312
100
AcDbArc
 50
90.0
 51
127.7833538155451
  0
ARC
  5
71E
330
A92
100
AcDbEntity
  8
1外形線
100
AcDbCircle
 10
582.8233099645055
 20
1164.401660409997
 30
0.0
 40
28.0
100
AcDbArc
 50
90.0
 51
180.0
  0
ARC
  5
71F
330
A92
100
AcDbEntity
  8
1外形線
100
AcDbCircle
 10
557.5088871980272
 20
1189.716083176475
 30
0.0
 40
4.5
100
AcDbArc
 50
44.99999999999515
 51
224.9999999999952
  0
LINE
  5
720
330
A92
100
AcDbEntity
  8
1外形線
100
AcDbLine
 10
566.4636682339824
 20
1187.125263171199
 30
0.0
 11
560.6908677133667
 21
1192.898063691814
 31
0.0
  0
ARC
  5
721
330
A92
100
AcDbEntity
  8
1外形線
100
AcDbCircle
 10
582.8233099645055
 20
1164.401660409997
 30
0.0
 40
35.82190264872312
100
AcDbArc
 50
142.216646184463
 51
180.0
  0
ARC
  5
722
330
A92
100
AcDbEntity
  8
1外形線
100
AcDbCircle
 10
582.8233099645055
 20
1164.401660409997
 30
0.0
 40
29.81864526865672
100
AcDbArc
 50
143.6797987066329
 51
180.0
  0
LINE
  5
723
330
A92
100
AcDbEntity
  8
1外形線
100
AcDbLine
 10
547.0014073157824
 20
1156.701660409997
 30
0.0
 11
547.0014073157826
 21
1164.401660409997
 31
0.0
  0
LINE
  5
724
330
A92
100
AcDbEntity
  8
1外形線
100
AcDbLine
 10
538.0590971120559
 20
1156.701660409997
 30
0.0
 11
538.0590971120559
 21
1164.401660409997
 31
0.0
  0
LINE
  5
725
330
A92
100
AcDbEntity
  8
1外形線
100
AcDbLine
 10
555.5233099645057
 20
1151.701660409997
 30
0.0
 11
555.5233099645057
 21
1155.701660409997
 31
0.0
  0
ARC
  5
726
330
A92
100
AcDbEntity
  8
1外形線
100
AcDbCircle
 10
554.5233099645058
 20
1155.701660409997
 30
0.0
 40
1.0
100
AcDbArc
 50
0.0
 51
90.0
  0
ARC
  5
727
330
A92
100
AcDbEntity
  8
1外形線
100
AcDbCircle
 10
554.5233099645058
 20
1151.701660409997
 30
0.0
 40
1.0
100
AcDbArc
 50
270.0
 51
0.0
  0
LINE
  5
728
330
A92
100
AcDbEntity
  8
1外形線
100
AcDbLine
 10
554.8233099645056
 20
1156.655599611414
 30
0.0
 11
554.8233099645056
 21
1164.401660409997
 31
0.0
  0
LINE
  5
729
330
A92
100
AcDbEntity
  8
1外形線
100
AcDbLine
 10
553.0046646958489
 20
1156.701660409997
 30
0.0
 11
553.0046646958489
 21
1164.401660409997
 31
0.0
  0
LINE
  5
72A
330
A92
100
AcDbEntity
  8
1外形線
100
AcDbLine
 10
560.0997072033033
 20
1180.76130214052
 30
0.0
 11
554.3269066826878
 21
1186.534102661135
 31
0.0
  0
CIRCLE
  5
72B
330
A92
100
AcDbEntity
  8
1外形線
100
AcDbCircle
 10
557.5088871980272
 20
1189.716083176475
 30
0.0
 40
1.7
  0
ARC
  5
72C
330
A92
100
AcDbEntity
  8
1外形線
100
AcDbCircle
 10
591.5233099645057
 20
1192.701660409997
 30
0.0
 40
1.0
100
AcDbArc
 50
180.0
 51
270.0
  0
LINE
  5
72D
330
A92
100
AcDbEntity
  8
1外形線
100
AcDbLine
 10
582.8233099645055
 20
1192.401660409997
 30
0.0
 11
590.5693707630887
 21
1192.401660409997
 31
0.0
  0
LINE
  5
72E
330
A92
100
AcDbEntity
  8
1外形線
100
AcDbLine
 10
582.8233099645059
 20
1209.16663316071
 30
0.0
 11
590.5233099645057
 21
1209.16663316071
 31
0.0
  0
LINE
  5
72F
330
A92
100
AcDbEntity
  8
1外形線
100
AcDbLine
 10
582.8233099645055
 20
1194.220888875686
 30
0.0
 11
590.5233099645057
 21
1194.220888875686
 31
0.0
  0
LINE
  5
730
330
A92
100
AcDbEntity
  8
1外形線
100
AcDbLine
 10
582.8233099645059
 20
1200.224322956984
 30
0.0
 11
590.5233099645057
 21
1200.224322956983
 31
0.0
  0
LINE
  5
731
330
A92
100
AcDbEntity
  8
1外形線
100
AcDbLine
 10
514.0233099645057
 20
1272.182431944306
 30
0.0
 11
547.0233099645056
 21
1272.182431944307
 31
0.0
  0
LINE
  5
732
330
A92
100
AcDbEntity
  8
1外形線
100
AcDbLine
 10
514.0233099645057
 20
1266.17899786301
 30
0.0
 11
547.0233670305381
 21
1266.17899786301
 31
0.0
  0
LINE
  5
733
330
A92
100
AcDbEntity
  8
1外形線
100
AcDbLine
 10
514.0233099645057
 20
1257.236687659282
 30
0.0
 11
590.5233099645057
 21
1257.236687659283
 31
0.0
  0
LINE
  5
734
330
A92
100
AcDbEntity
  8
1外形線
100
AcDbLine
 10
590.5693707630887
 20
1274.001660409996
 30
0.0
 11
514.0233099645057
 21
1274.001660409996
 31
0.0
  0
LINE
  5
735
330
A92
100
AcDbEntity
  8
1外形線
100
AcDbLine
 10
514.0233099645057
 20
1266.17899786301
 30
0.0
 11
481.0232528984732
 21
1266.17899786301
 31
0.0
  0
LINE
  5
736
330
A92
100
AcDbEntity
  8
1外形線
100
AcDbLine
 10
514.0233099645057
 20
1272.182431944306
 30
0.0
 11
481.0233099645057
 21
1272.182431944307
 31
0.0
  0
LINE
  5
737
330
A92
100
AcDbEntity
  8
1外形線
100
AcDbLine
 10
481.0233099645057
 20
1274.001660409996
 30
0.0
 11
481.0233099645057
 21
1266.201660409997
 31
0.0
  0
CIRCLE
  5
738
330
A92
100
AcDbEntity
  8
1外形線
100
AcDbCircle
 10
476.5233099645057
 20
1266.201660409997
 30
0.0
 40
1.7
  0
LINE
  5
739
330
A92
100
AcDbEntity
  8
1外形線
100
AcDbLine
 10
556.0233099645056
 20
1272.182431944307
 30
0.0
 11
590.5233099645057
 21
1272.182431944308
 31
0.0
  0
LINE
  5
73A
330
A92
100
AcDbEntity
  8
1外形線
100
AcDbLine
 10
556.0232528984731
 20
1266.17899786301
 30
0.0
 11
590.5233099645057
 21
1266.17899786301
 31
0.0
  0
ARC
  5
73B
330
A92
100
AcDbEntity
  8
1外形線
100
AcDbCircle
 10
551.5233099645057
 20
1266.201660409997
 30
0.0
 40
4.5
100
AcDbArc
 50
180.0
 51
0.0
  0
LINE
  5
73C
330
A92
100
AcDbEntity
  8
1外形線
100
AcDbLine
 10
547.0233099645056
 20
1274.001660409996
 30
0.0
 11
547.0233099645056
 21
1266.201660409997
 31
0.0
  0
CIRCLE
  5
73D
330
A92
100
AcDbEntity
  8
1外形線
100
AcDbCircle
 10
551.5233099645057
 20
1266.201660409997
 30
0.0
 40
1.7
  0
LINE
  5
73E
330
A92
100
AcDbEntity
  8
1外形線
100
AcDbLine
 10
556.0233099645056
 20
1274.001660409996
 30
0.0
 11
556.0233099645056
 21
1266.201660409997
 31
0.0
  0
ARC
  5
73F
330
A92
100
AcDbEntity
  8
1外形線
100
AcDbCircle
 10
591.5233099645057
 20
1273.701660409997
 30
0.0
 40
1.0
100
AcDbArc
 50
90.0
 51
180.0
  0
LINE
  5
740
330
A92
100
AcDbEntity
  8
1外形線
100
AcDbLine
 10
689.5233099645058
 20
1235.201660409997
 30
0.0
 11
689.5233099645058
 21
1257.866811799908
 31
0.0
  0
ARC
  5
741
330
A92
100
AcDbEntity
  8
1外形線
100
AcDbCircle
 10
668.8233099645058
 20
1249.701660409996
 30
0.0
 40
25.0
100
AcDbArc
 50
0.0
 51
90.0
  0
ARC
  5
742
330
A92
100
AcDbEntity
  8
1外形線
100
AcDbCircle
 10
669.5233099645058
 20
1248.701660409997
 30
0.0
 40
22.0
100
AcDbArc
 50
0.0
 51
90.0
  0
ARC
  5
743
330
A92
100
AcDbEntity
  8
1外形線
100
AcDbCircle
 10
654.5218323931666
 20
1246.988634260052
 30
0.0
 40
28.0
100
AcDbArc
 50
98.21015585933849
 51
180.5886196465816
  0
ARC
  5
744
330
A92
100
AcDbEntity
  8
1外形線
100
AcDbCircle
 10
654.5127063244136
 20
1246.429719176468
 30
0.0
 40
25.0
100
AcDbArc
 50
103.8615083065218
 51
181.6688237303366
  0
LINE
  5
745
330
A92
100
AcDbEntity
  8
1外形線
100
AcDbLine
 10
596.5233099645057
 20
1273.701660409997
 30
0.0
 11
596.5233099645057
 21
1192.701660409997
 31
0.0
  0
LINE
  5
746
330
A92
100
AcDbEntity
  8
1外形線
100
AcDbLine
 10
653.5233099645059
 20
1193.201660409996
 30
0.0
 11
656.5233099645058
 21
1192.401660409997
 31
0.0
  0
LINE
  5
747
330
A92
100
AcDbEntity
  8
1外形線
100
AcDbLine
 10
669.5233099645058
 20
1195.701660409997
 30
0.0
 11
648.5233099645004
 21
1195.701660409997
 31
0.0
  0
LINE
  5
748
330
A92
100
AcDbEntity
  8
1外形線
100
AcDbLine
 10
693.8233099645058
 20
1150.701660409997
 30
0.0
 11
627.5233099645058
 21
1150.701660409997
 31
0.0
  0
ARC
  5
749
330
A92
100
AcDbEntity
  8
1外形線
100
AcDbCircle
 10
634.0981398150898
 20
1193.216083176475
 30
0.0
 40
1.0
100
AcDbArc
 50
40.37559922835852
 51
204.5015676702159
  0
LINE
  5
74A
330
A92
100
AcDbEntity
  8
1外形線
100
AcDbLine
 10
635.0981398150898
 20
1199.247382163161
 30
0.0
 11
635.0981398150898
 21
1193.59815260168
 31
0.0
  0
LINE
  5
74B
330
A92
100
AcDbEntity
  8
1外形線
100
AcDbLine
 10
627.2233099645059
 20
1213.426720156038
 30
0.0
 11
627.2233099645058
 21
1156.655599611414
 31
0.0
  0
LINE
  5
74C
330
A92
100
AcDbEntity
  8
1外形線
100
AcDbLine
 10
629.2155200093948
 20
1207.431758973789
 30
0.0
 11
629.2155200093948
 21
1156.701660409997
 31
0.0
  0
LINE
  5
74D
330
A92
100
AcDbEntity
  8
1外形線
100
AcDbLine
 10
653.5233099645059
 20
1194.401660409997
 30
0.0
 11
653.5233099645059
 21
1193.201660409996
 31
0.0
  0
ARC
  5
74E
330
A92
100
AcDbEntity
  8
1外形線
100
AcDbCircle
 10
654.5218323931666
 20
1219.414686559941
 30
0.0
 40
28.0
100
AcDbArc
 50
179.4113803534184
 51
261.7898441406615
  0
ARC
  5
74F
330
A92
100
AcDbEntity
  8
1外形線
100
AcDbCircle
 10
654.5127063244136
 20
1219.973601643525
 30
0.0
 40
25.0
100
AcDbArc
 50
178.3311762696634
 51
256.1384916934748
  0
ARC
  5
750
330
A92
100
AcDbEntity
  8
1外形線
100
AcDbCircle
 10
595.5233099645057
 20
1192.701660409997
 30
0.0
 40
1.0
100
AcDbArc
 50
270.0
 51
0.0
  0
LINE
  5
751
330
A92
100
AcDbEntity
  8
1外形線
100
AcDbLine
 10
635.0981398150898
 20
1189.275672115328
 30
0.0
 11
635.0981398150898
 21
1156.701660409997
 31
0.0
  0
LINE
  5
752
330
A92
100
AcDbEntity
  8
1外形線
100
AcDbLine
 10
643.9904802993798
 20
1182.037658619285
 30
0.0
 11
643.9904802993798
 21
1156.701660409997
 31
0.0
  0
LINE
  5
753
330
A92
100
AcDbEntity
  8
1外形線
100
AcDbLine
 10
653.5233099645059
 20
1193.801660409996
 30
0.0
 11
653.5233099645059
 21
1150.701660409997
 31
0.0
  0
LINE
  5
754
330
A92
100
AcDbEntity
  8
1外形線
100
AcDbLine
 10
650.5233099645058
 20
1150.701660409997
 30
0.0
 11
650.5233099645058
 21
1191.701660409996
 31
0.0
  0
LINE
  5
755
330
A92
100
AcDbEntity
  8
1外形線
100
AcDbLine
 10
627.5233099645058
 20
1156.701660409997
 30
0.0
 11
650.5233099645058
 21
1156.701660409997
 31
0.0
  0
ARC
  5
756
330
A92
100
AcDbEntity
  8
1外形線
100
AcDbCircle
 10
627.5233099645058
 20
1155.701660409997
 30
0.0
 40
1.0
100
AcDbArc
 50
90.0
 51
180.0
  0
ARC
  5
757
330
A92
100
AcDbEntity
  8
1外形線
100
AcDbCircle
 10
627.5233099645058
 20
1151.701660409997
 30
0.0
 40
1.0
100
AcDbArc
 50
180.0
 51
270.0
  0
LINE
  5
758
330
A92
100
AcDbEntity
  8
1外形線
100
AcDbLine
 10
626.5233099645057
 20
1151.701660409997
 30
0.0
 11
626.5233099645057
 21
1155.701660409997
 31
0.0
  0
ARC
  5
759
330
A92
100
AcDbEntity
  8
1外形線
100
AcDbCircle
 10
649.8712761427673
 20
1207.079786146762
 30
0.0
 40
20.0
100
AcDbArc
 50
221.2667587819054
 51
266.1354317576009
  0
ARC
  5
75A
330
A92
100
AcDbEntity
  8
1外形線
100
AcDbCircle
 10
651.6400060891676
 20
1200.516964753211
 30
0.0
 40
20.0
100
AcDbArc
 50
202.6921712734247
 51
261.0347845243284
  0
LINE
  5
75B
330
A92
100
AcDbEntity
  8
1外形線
100
AcDbLine
 10
650.5233099645058
 20
1192.401660409997
 30
0.0
 11
650.5233099645058
 21
1191.701660409996
 31
0.0
  0
LINE
  5
75C
330
A92
100
AcDbEntity
  8
1外形線
100
AcDbLine
 10
653.5233099645059
 20
1193.201660409996
 30
0.0
 11
650.5233099645058
 21
1192.401660409997
 31
0.0
  0
LINE
  5
75D
330
A92
100
AcDbEntity
  8
1外形線
100
AcDbLine
 10
648.5233099645003
 20
1187.125263171199
 30
0.0
 11
648.5233099645003
 21
1180.76130214052
 31
0.0
  0
LINE
  5
75E
330
A92
100
AcDbEntity
  8
1外形線
100
AcDbLine
 10
643.9904802993798
 20
1193.470696445144
 30
0.0
 11
643.9904802993798
 21
1187.963922570967
 31
0.0
  0
LINE
  5
75F
330
A92
100
AcDbEntity
  8
1外形線
100
AcDbLine
 10
626.5233099645057
 20
1219.702335324555
 30
0.0
 11
626.5233099645057
 21
1233.201660409997
 31
0.0
  0
LINE
  5
760
330
A92
100
AcDbEntity
  8
1外形線
100
AcDbLine
 10
629.5233099645058
 20
1220.701660409997
 30
0.0
 11
629.5233099645058
 21
1233.201660409997
 31
0.0
  0
LINE
  5
761
330
A92
100
AcDbEntity
  8
1外形線
100
AcDbLine
 10
648.5233099645055
 20
1194.401660409997
 30
0.0
 11
653.5233099645059
 21
1194.401660409997
 31
0.0
  0
LINE
  5
762
330
A92
100
AcDbEntity
  8
1外形線
100
AcDbLine
 10
648.5233099645055
 20
1195.701660409997
 30
0.0
 11
648.5233099645055
 21
1194.401660409997
 31
0.0
  0
LINE
  5
763
330
A92
100
AcDbEntity
  8
1外形線
100
AcDbLine
 10
629.5233099645058
 20
1245.701660409997
 30
0.0
 11
629.5233099645058
 21
1233.201660409997
 31
0.0
  0
LINE
  5
764
330
A92
100
AcDbEntity
  8
1外形線
100
AcDbLine
 10
626.5233099645057
 20
1246.700985495438
 30
0.0
 11
626.5233099645057
 21
1233.201660409997
 31
0.0
  0
ARC
  5
765
330
A92
100
AcDbEntity
  8
1外形線
100
AcDbCircle
 10
669.5233099645058
 20
1217.701660409996
 30
0.0
 40
22.0
100
AcDbArc
 50
270.0
 51
0.0
  0
ARC
  5
766
330
A92
100
AcDbEntity
  8
1外形線
100
AcDbCircle
 10
668.8233099645058
 20
1216.701660409997
 30
0.0
 40
25.0
100
AcDbArc
 50
270.0
 51
0.0
  0
LINE
  5
767
330
A92
100
AcDbEntity
  8
1外形線
100
AcDbLine
 10
693.8233099645056
 20
1150.701660409997
 30
0.0
 11
693.8233099645058
 21
1233.201660409997
 31
0.0
  0
LINE
  5
768
330
A92
100
AcDbEntity
  8
1外形線
100
AcDbLine
 10
686.706004747339
 20
1199.231422080082
 30
0.0
 11
686.706004747339
 21
1156.701660409997
 31
0.0
  0
LINE
  5
769
330
A92
100
AcDbEntity
  8
1外形線
100
AcDbLine
 10
691.9735826045301
 20
1207.264241446501
 30
0.0
 11
691.9735826045301
 21
1156.701660409997
 31
0.0
  0
LINE
  5
76A
330
A92
100
AcDbEntity
  8
1外形線
100
AcDbLine
 10
656.5233099645058
 20
1156.701660409997
 30
0.0
 11
693.8233099645058
 21
1156.701660409997
 31
0.0
  0
LINE
  5
76B
330
A92
100
AcDbEntity
  8
1外形線
100
AcDbLine
 10
656.5233099645058
 20
1191.701660409996
 30
0.0
 11
656.5233099645058
 21
1150.701660409997
 31
0.0
  0
LINE
  5
76C
330
A92
100
AcDbEntity
  8
1外形線
100
AcDbLine
 10
678.8225173709775
 20
1193.788436035362
 30
0.0
 11
678.8225173709775
 21
1156.701660409997
 31
0.0
  0
LINE
  5
76D
330
A92
100
AcDbEntity
  8
1外形線
100
AcDbLine
 10
656.5233099645055
 20
1192.401660409997
 30
0.0
 11
656.5233099645058
 21
1191.701660409996
 31
0.0
  0
LINE
  5
76E
330
A92
100
AcDbEntity
  8
1外形線
100
AcDbLine
 10
656.5233099645058
 20
1191.701660409996
 30
0.0
 11
668.8233099645058
 21
1191.701660409996
 31
0.0
  0
LINE
  5
76F
330
A92
100
AcDbEntity
  8
1外形線
100
AcDbLine
 10
691.5233099645059
 20
1233.201660409997
 30
0.0
 11
691.5233099645059
 21
1217.701660409996
 31
0.0
  0
LINE
  5
770
330
A92
100
AcDbEntity
  8
1外形線
100
AcDbLine
 10
689.5233099645058
 20
1231.201660409997
 30
0.0
 11
689.5233099645058
 21
1208.536509020085
 31
0.0
  0
LINE
  5
771
330
A92
100
AcDbEntity
  8
1外形線
  6
Continuous
100
AcDbLine
 10
691.5233099645059
 20
1235.201660409997
 30
0.0
 11
688.5233099645058
 21
1235.201660409997
 31
0.0
  0
LINE
  5
772
330
A92
100
AcDbEntity
  8
1外形線
  6
Continuous
100
AcDbLine
 10
691.5233099645059
 20
1231.201660409997
 30
0.0
 11
688.5233099645058
 21
1231.201660409997
 31
0.0
  0
LINE
  5
773
330
A92
100
AcDbEntity
  8
1外形線
100
AcDbLine
 10
688.5233099645058
 20
1231.201660409997
 30
0.0
 11
688.5233099645058
 21
1235.201660409997
 31
0.0
  0
LINE
  5
774
330
A92
100
AcDbEntity
  8
1外形線
100
AcDbLine
 10
691.5233099645059
 20
1233.201660409997
 30
0.0
 11
691.5233099645059
 21
1248.701660409997
 31
0.0
  0
LINE
  5
775
330
A92
100
AcDbEntity
  8
1外形線
100
AcDbLine
 10
693.8233099645058
 20
1249.701660409996
 30
0.0
 11
693.8233099645058
 21
1233.201660409997
 31
0.0
  0
LINE
  5
776
330
A92
100
AcDbEntity
  8
1外形線
100
AcDbLine
 10
653.5233099645059
 20
1273.201660409997
 30
0.0
 11
656.5233099645058
 21
1274.001660409997
 31
0.0
  0
LINE
  5
777
330
A92
100
AcDbEntity
  8
1外形線
100
AcDbLine
 10
669.5233099645058
 20
1270.701660409997
 30
0.0
 11
648.5233099645005
 21
1270.701660409997
 31
0.0
  0
ARC
  5
778
330
A92
100
AcDbEntity
  8
1外形線
100
AcDbCircle
 10
595.5233099645057
 20
1273.701660409997
 30
0.0
 40
1.0
100
AcDbArc
 50
0.0
 51
90.0
  0
LINE
  5
779
330
A92
100
AcDbEntity
  8
1外形線
100
AcDbLine
 10
653.5233099645059
 20
1273.201660409997
 30
0.0
 11
650.5233099645058
 21
1274.001660409996
 31
0.0
  0
LINE
  5
77A
330
A92
100
AcDbEntity
  8
1外形線
100
AcDbLine
 10
650.5233099645058
 20
1274.001660409996
 30
0.0
 11
650.5233099645058
 21
1274.701660409997
 31
0.0
  0
LINE
  5
77B
330
A92
100
AcDbEntity
  8
1外形線
100
AcDbLine
 10
648.5233099645055
 20
1272.001660409997
 30
0.0
 11
653.5233099645059
 21
1272.001660409997
 31
0.0
  0
LINE
  5
77C
330
A92
100
AcDbEntity
  8
1外形線
100
AcDbLine
 10
648.5233099645055
 20
1270.701660409997
 30
0.0
 11
648.5233099645055
 21
1272.001660409997
 31
0.0
  0
LINE
  5
77D
330
A92
100
AcDbEntity
  8
1外形線
100
AcDbLine
 10
653.5233099645059
 20
1272.001660409997
 30
0.0
 11
653.5233099645059
 21
1273.201660409997
 31
0.0
  0
LINE
  5
77E
330
A92
100
AcDbEntity
  8
1外形線
100
AcDbLine
 10
656.5233099645055
 20
1274.001660409997
 30
0.0
 11
656.5233099645058
 21
1274.701660409997
 31
0.0
  0
LINE
  5
77F
330
A92
100
AcDbEntity
  8
1外形線
100
AcDbLine
 10
656.5233099645058
 20
1274.701660409997
 30
0.0
 11
668.8233099645058
 21
1274.701660409997
 31
0.0
  0
LINE
  5
780
330
A92
100
AcDbEntity
  8
1外形線
100
AcDbLine
 10
1500.63125630301
 20
993.4016604099975
 30
0.0
 11
1500.63125630301
 21
545.6879213433613
 31
0.0
  0
LINE
  5
781
330
A92
100
AcDbEntity
  8
1外形線
100
AcDbLine
 10
1200.61854081814
 20
993.4016604099975
 30
0.0
 11
1200.61854081814
 21
545.6879213433613
 31
0.0
  0
LINE
  5
782
330
A92
100
AcDbEntity
  8
1外形線
100
AcDbLine
 10
866.4233099645061
 20
993.4016604099975
 30
0.0
 11
866.4233099645063
 21
545.6879213433613
 31
0.0
  0
LINE
  5
783
330
A92
100
AcDbEntity
  8
1外形線
100
AcDbLine
 10
1331.424699191542
 20
884.9528131897764
 30
0.0
 11
1341.641043901151
 21
867.257585085097
 31
0.0
  0
LINE
  5
784
330
A92
100
AcDbEntity
  8
1外形線
100
AcDbLine
 10
1347.728159761372
 20
884.9528131897764
 30
0.0
 11
1357.078479067196
 21
868.7575850850967
 31
0.0
  0
LINE
  5
785
330
A92
100
AcDbEntity
  8
1外形線
100
AcDbLine
 10
1346.197374104891
 20
884.9528131897764
 30
0.0
 11
1356.403126534843
 21
867.2759314516294
 31
0.0
  0
LINE
  5
786
330
A92
100
AcDbEntity
  8
1外形線
100
AcDbLine
 10
1339.744748223953
 20
884.9528131897764
 30
0.0
 11
1349.961092933561
 21
867.257585085097
 31
0.0
  0
LINE
  5
787
330
A92
100
AcDbEntity
  8
1外形線
100
AcDbLine
 10
1276.412382444737
 20
884.9528131897764
 30
0.0
 11
1266.196037735128
 21
867.257585085097
 31
0.0
  0
LINE
  5
788
330
A92
100
AcDbEntity
  8
1外形線
100
AcDbLine
 10
1268.092333412327
 20
884.9528131897764
 30
0.0
 11
1257.875988702718
 21
867.257585085097
 31
0.0
  0
LINE
  5
789
330
A92
100
AcDbEntity
  8
1外形線
100
AcDbLine
 10
1261.639707531388
 20
884.9528131897764
 30
0.0
 11
1251.433955101436
 21
867.2759314516294
 31
0.0
  0
LINE
  5
78A
330
A92
100
AcDbEntity
  8
1外形線
100
AcDbLine
 10
1260.108921874907
 20
884.9528131897764
 30
0.0
 11
1250.758602569083
 21
868.7575850850967
 31
0.0
  0
ARC
  5
78B
330
A92
100
AcDbEntity
  8
1外形線
100
AcDbCircle
 10
1002.719849394675
 20
889.4863491202521
 30
0.0
 40
15.0
100
AcDbArc
 50
180.0
 51
236.2991893696616
  0
ARC
  5
78C
330
A92
100
AcDbEntity
  8
1外形線
100
AcDbCircle
 10
1019.023309964506
 20
889.4863491202521
 30
0.0
 40
15.0
100
AcDbArc
 50
180.0
 51
236.2991893696616
  0
ARC
  5
78D
330
A92
100
AcDbEntity
  8
1外形線
100
AcDbCircle
 10
1017.492524308024
 20
889.4863491202524
 30
0.0
 40
15.0
100
AcDbArc
 50
180.0
 51
236.2991893696616
  0
ARC
  5
78E
330
A92
100
AcDbEntity
  8
1外形線
100
AcDbCircle
 10
1011.039898427085
 20
889.4863491202521
 30
0.0
 40
15.0
100
AcDbArc
 50
180.0
 51
236.2991893696616
  0
ARC
  5
78F
330
A92
100
AcDbEntity
  8
1外形線
100
AcDbCircle
 10
936.7267705343369
 20
889.4863491202521
 30
0.0
 40
15.0
100
AcDbArc
 50
303.7008106303384
 51
0.0
  0
ARC
  5
790
330
A92
100
AcDbEntity
  8
1外形線
100
AcDbCircle
 10
928.4067215019266
 20
889.4863491202521
 30
0.0
 40
15.0
100
AcDbArc
 50
303.7008106303384
 51
0.0
  0
ARC
  5
791
330
A92
100
AcDbEntity
  8
1外形線
100
AcDbCircle
 10
921.9540956209883
 20
889.4863491202524
 30
0.0
 40
15.0
100
AcDbArc
 50
303.7008106303384
 51
0.0
  0
ARC
  5
792
330
A92
100
AcDbEntity
  8
1外形線
100
AcDbCircle
 10
920.423309964506
 20
889.4863491202521
 30
0.0
 40
15.0
100
AcDbArc
 50
303.7008106303384
 51
0.0
  0
LINE
  5
793
330
A92
100
AcDbEntity
  8
C4
100
AcDbLine
 10
735.2233099645058
 20
805.5879213433613
 30
0.0
 11
735.2233099645058
 21
821.2530727332731
 31
0.0
  0
LINE
  5
794
330
A92
100
AcDbEntity
  8
1外形線
100
AcDbLine
 10
1200.61854081814
 20
515.6879213433614
 30
0.0
 11
1200.61854081814
 21
-16.38623127105018
 31
0.0
  0
LINE
  5
795
330
A92
100
AcDbEntity
  8
1外形線
100
AcDbLine
 10
866.4233099645061
 20
515.6879213433614
 30
0.0
 11
866.4233099645061
 21
-16.38623127105018
 31
0.0
  0
ARC
  5
796
330
A92
100
AcDbEntity
  8
1外形線
100
AcDbCircle
 10
1035.723309964506
 20
306.8411602327882
 30
0.0
 40
27.3
100
AcDbArc
 50
0.0
 51
90.00004600359178
  0
ARC
  5
797
330
A92
100
AcDbEntity
  8
1外形線
100
AcDbCircle
 10
943.7233099645059
 20
306.8411602327882
 30
0.0
 40
27.3
100
AcDbArc
 50
89.99995399640823
 51
180.0
  0
LINE
  5
798
330
A92
100
AcDbEntity
  8
C4
100
AcDbLine
 10
734.3233099645062
 20
263.66376872895
 30
0.0
 11
734.3233099645062
 21
218.66376872895
 31
0.0
  0
LINE
  5
799
330
A92
100
AcDbEntity
  8
C4
100
AcDbLine
 10
731.5233099645061
 20
263.66376872895
 30
0.0
 11
731.5233099645061
 21
214.8137687289497
 31
0.0
  0
LINE
  5
79A
330
A92
100
AcDbEntity
  8
C4
100
AcDbLine
 10
811.8233099645063
 20
261.66376872895
 30
0.0
 11
811.8233099645063
 21
225.66376872895
 31
0.0
  0
LINE
  5
79B
330
A92
100
AcDbEntity
  8
C4
100
AcDbLine
 10
814.3233099645062
 20
218.66376872895
 30
0.0
 11
814.3233099645062
 21
263.66376872895
 31
0.0
  0
LINE
  5
79C
330
A92
100
AcDbEntity
  8
C4
100
AcDbLine
 10
816.4233099645061
 20
138.6637687289496
 30
0.0
 11
816.4233099645066
 21
263.66376872895
 31
0.0
  0
LINE
  5
79D
330
A92
100
AcDbEntity
  8
1外形線
100
AcDbLine
 10
989.723309964506
 20
331.8411232987458
 30
0.0
 11
944.7233099645059
 21
331.8411232987458
 31
0.0
  0
LINE
  5
79E
330
A92
100
AcDbEntity
  8
1外形線
100
AcDbLine
 10
943.7233318840624
 20
334.1411602327793
 30
0.0
 11
989.723309964506
 21
334.1411232987459
 31
0.0
  0
LINE
  5
79F
330
A92
100
AcDbEntity
  8
1外形線
100
AcDbLine
 10
944.6650652631868
 20
329.8419715899533
 30
0.0
 11
989.723309964506
 21
329.8411232987458
 31
0.0
  0
LINE
  5
7A0
330
A92
100
AcDbEntity
  8
1外形線
100
AcDbLine
 10
941.7233099645059
 20
254.8411232987458
 30
0.0
 11
989.723309964506
 21
254.8411232987456
 31
0.0
  0
LINE
  5
7A1
330
A92
100
AcDbEntity
  8
1外形線
100
AcDbLine
 10
989.723309964506
 20
250.8411232987459
 30
0.0
 11
940.7233099645059
 21
250.8411232987461
 31
0.0
  0
LINE
  5
7A2
330
A92
100
AcDbEntity
  8
1外形線
100
AcDbLine
 10
989.723309964506
 20
252.8411232987458
 30
0.0
 11
941.7233099645059
 21
252.8411232987458
 31
0.0
  0
LINE
  5
7A3
330
A92
100
AcDbEntity
  8
C4
100
AcDbLine
 10
731.5233099645061
 20
139.6637687289496
 30
0.0
 11
731.5233099645065
 21
145.7098295275323
 31
0.0
  0
LINE
  5
7A4
330
A92
100
AcDbEntity
  8
C4
100
AcDbLine
 10
765.3233099645063
 20
190.5137687289499
 30
0.0
 11
765.3233099645022
 21
138.6637687289496
 31
0.0
  0
LINE
  5
7A5
330
A92
100
AcDbEntity
  8
C4
100
AcDbLine
 10
771.3233099645062
 20
190.5137687289499
 30
0.0
 11
771.3233099645062
 21
138.6637687289496
 31
0.0
  0
LINE
  5
7A6
330
A92
100
AcDbEntity
  8
C4
100
AcDbLine
 10
768.3233099645063
 20
138.6637687289496
 30
0.0
 11
768.3233099645063
 21
192.3637687289499
 31
0.0
  0
LINE
  5
7A7
330
A92
100
AcDbEntity
  8
C4
100
AcDbLine
 10
732.523309964506
 20
138.6637687289496
 30
0.0
 11
816.4233099645061
 21
138.6637687289496
 31
0.0
  0
ARC
  5
7A8
330
A92
100
AcDbEntity
  8
C4
100
AcDbCircle
 10
732.523309964506
 20
139.6637687289498
 30
0.0
 40
1.0
100
AcDbArc
 50
180.0
 51
270.0
  0
LINE
  5
7A9
330
A92
100
AcDbEntity
  8
C4
100
AcDbLine
 10
771.3233099645062
 20
189.8137687289497
 30
0.0
 11
791.4233099645062
 21
189.8137687289497
 31
0.0
  0
LINE
  5
7AA
330
A92
100
AcDbEntity
  8
C4
100
AcDbLine
 10
759.3233099645062
 20
193.6637687289496
 30
0.0
 11
789.3233099645063
 21
193.6637687289496
 31
0.0
  0
LINE
  5
7AB
330
A92
100
AcDbEntity
  8
C4
100
AcDbLine
 10
771.3233099645062
 20
146.6637687289491
 30
0.0
 11
816.4233099645061
 21
146.6637687289496
 31
0.0
  0
ARC
  5
7AC
330
A92
100
AcDbEntity
  8
C4
100
AcDbCircle
 10
756.5233099645061
 20
214.8137687289497
 30
0.0
 40
25.0
100
AcDbArc
 50
180.0
 51
270.0
  0
ARC
  5
7AD
330
A92
100
AcDbEntity
  8
C4
100
AcDbCircle
 10
759.3233099645062
 20
218.66376872895
 30
0.0
 40
25.0
100
AcDbArc
 50
180.0
 51
270.0
  0
LINE
  5
7AE
330
A92
100
AcDbEntity
  8
C4
100
AcDbLine
 10
739.1920870442496
 20
196.7963129682612
 30
0.0
 11
739.1920870442496
 21
146.6637687289491
 31
0.0
  0
LINE
  5
7AF
330
A92
100
AcDbEntity
  8
C4
100
AcDbLine
 10
733.8119566393884
 20
204.3641548537077
 30
0.0
 11
733.8119566393884
 21
146.6637687289496
 31
0.0
  0
LINE
  5
7B0
330
A92
100
AcDbEntity
  8
C4
100
AcDbLine
 10
732.2233099645063
 20
146.6637687289496
 30
0.0
 11
732.2233099645063
 21
208.9392474718594
 31
0.0
  0
LINE
  5
7B1
330
A92
100
AcDbEntity
  8
C4
100
AcDbLine
 10
732.2233099645063
 20
146.6637687289496
 30
0.0
 11
765.3233099645027
 21
146.6637687289491
 31
0.0
  0
LINE
  5
7B2
330
A92
100
AcDbEntity
  8
C4
100
AcDbLine
 10
747.1159593973952
 20
191.6512611939812
 30
0.0
 11
747.1159593973952
 21
146.6637687289496
 31
0.0
  0
ARC
  5
7B3
330
A92
100
AcDbEntity
  8
C4
100
AcDbCircle
 10
732.5233099645065
 20
145.7098295275327
 30
0.0
 40
1.0
100
AcDbArc
 50
107.4576031237193
 51
180.0
  0
LINE
  5
7B4
330
A92
100
AcDbEntity
  8
C4
100
AcDbLine
 10
756.5233099645061
 20
189.8137687289497
 30
0.0
 11
765.3233099645063
 21
189.8137687289497
 31
0.0
  0
LINE
  5
7B5
330
A92
100
AcDbEntity
  8
C4
100
AcDbLine
 10
768.3233099645063
 20
192.3637687289499
 30
0.0
 11
763.3233099645062
 21
192.3637687289499
 31
0.0
  0
LINE
  5
7B6
330
A92
100
AcDbEntity
  8
C4
100
AcDbLine
 10
768.3233099645063
 20
191.3137687289496
 30
0.0
 11
771.3233099645062
 21
190.5137687289499
 31
0.0
  0
LINE
  5
7B7
330
A92
100
AcDbEntity
  8
C4
100
AcDbLine
 10
768.3233099645063
 20
191.3137687289496
 30
0.0
 11
765.3233099645063
 21
190.5137687289499
 31
0.0
  0
LINE
  5
7B8
330
A92
100
AcDbEntity
  8
C4
100
AcDbLine
 10
763.3233099645062
 20
192.3637687289499
 30
0.0
 11
763.3233099645062
 21
193.6637687289496
 31
0.0
  0
ARC
  5
7B9
330
A92
100
AcDbEntity
  8
C4
100
AcDbCircle
 10
791.4233099645064
 20
214.8137687289497
 30
0.0
 40
25.0
100
AcDbArc
 50
270.0
 51
0.0
  0
ARC
  5
7BA
330
A92
100
AcDbEntity
  8
C4
100
AcDbCircle
 10
789.3233099645066
 20
218.66376872895
 30
0.0
 40
25.0
100
AcDbArc
 50
270.0
 51
0.0
  0
LINE
  5
7BB
330
A92
100
AcDbEntity
  8
C4
100
AcDbLine
 10
809.2715946978573
 20
197.3083772144124
 30
0.0
 11
809.2715946978573
 21
146.6637687289496
 31
0.0
  0
LINE
  5
7BC
330
A92
100
AcDbEntity
  8
C4
100
AcDbLine
 10
815.0873697074516
 20
206.7507496614845
 30
0.0
 11
815.0873697074516
 21
146.6637687289496
 31
0.0
  0
LINE
  5
7BD
330
A92
100
AcDbEntity
  8
C4
100
AcDbLine
 10
799.8380121573522
 20
191.2724691257901
 30
0.0
 11
799.8380121573522
 21
146.6637687289491
 31
0.0
  0
LINE
  5
7BE
330
A92
100
AcDbEntity
  8
C4
100
AcDbLine
 10
811.3233099645063
 20
221.66376872895
 30
0.0
 11
811.3233099645063
 21
225.66376872895
 31
0.0
  0
LINE
  5
7BF
330
A92
100
AcDbEntity
  8
C4
100
AcDbLine
 10
811.3233099645063
 20
221.66376872895
 30
0.0
 11
814.3233099645062
 21
221.66376872895
 31
0.0
  0
LINE
  5
7C0
330
A92
100
AcDbEntity
  8
C4
100
AcDbLine
 10
811.8233099645063
 20
221.66376872895
 30
0.0
 11
811.8233099645063
 21
207.7665213700981
 31
0.0
  0
LINE
  5
7C1
330
A92
100
AcDbEntity
  8
C4
100
AcDbLine
 10
811.3233099645063
 20
225.66376872895
 30
0.0
 11
814.3233099645062
 21
225.66376872895
 31
0.0
  0
LINE
  5
7C2
330
A92
100
AcDbEntity
  8
1外形線
100
AcDbLine
 10
916.4233099645061
 20
287.8411232987462
 30
0.0
 11
916.4233099645063
 21
275.1411232987458
 31
0.0
  0
LINE
  5
7C3
330
A92
100
AcDbEntity
  8
1外形線
100
AcDbLine
 10
923.5233099645057
 20
266.5489583220948
 30
0.0
 11
923.5233099645057
 21
315.7607645471371
 31
0.0
  0
LINE
  5
7C4
330
A92
100
AcDbEntity
  8
1外形線
100
AcDbLine
 10
919.7233099645059
 20
274.8411232987459
 30
0.0
 11
919.7233099645059
 21
306.8411232987458
 31
0.0
  0
ARC
  5
7C5
330
A92
100
AcDbEntity
  8
1外形線
100
AcDbCircle
 10
941.7233099645059
 20
274.8411232987459
 30
0.0
 40
22.0
100
AcDbArc
 50
180.0
 51
270.0
  0
ARC
  5
7C6
330
A92
100
AcDbEntity
  8
1外形線
100
AcDbCircle
 10
941.7233099645059
 20
274.8411232987459
 30
0.0
 40
20.0
100
AcDbArc
 50
204.4946484714201
 51
270.0
  0
ARC
  5
7C7
330
A92
100
AcDbEntity
  8
1外形線
100
AcDbCircle
 10
940.7233099645059
 20
275.1411232987458
 30
0.0
 40
24.29999999999984
100
AcDbArc
 50
180.0
 51
270.0
  0
ARC
  5
7C8
330
A92
100
AcDbEntity
  8
1外形線
100
AcDbCircle
 10
944.7233099645059
 20
306.8411232987458
 30
0.0
 40
23.0
100
AcDbArc
 50
90.0
 51
157.181669935161
  0
ARC
  5
7C9
330
A92
100
AcDbEntity
  8
1外形線
100
AcDbCircle
 10
944.7233099645059
 20
306.8411232987458
 30
0.0
 40
25.0
100
AcDbArc
 50
90.0
 51
180.0
  0
LINE
  5
7CA
330
A92
100
AcDbEntity
  8
1外形線
  6
Continuous
100
AcDbLine
 10
926.0233099645061
 20
291.3411232987458
 30
0.0
 11
926.0233099645056
 21
320.2317916913241
 31
0.0
  0
LINE
  5
7CB
330
A92
100
AcDbEntity
  8
1外形線
100
AcDbLine
 10
924.4093479255084
 20
291.1830094157373
 30
0.0
 11
923.5233099645057
 21
293.8411232987458
 31
0.0
  0
LINE
  5
7CC
330
A92
100
AcDbEntity
  8
1外形線
100
AcDbLine
 10
924.8836895745339
 20
290.8411232987459
 30
0.0
 11
925.5233099645062
 21
290.8411232987459
 31
0.0
  0
ARC
  5
7CD
330
A92
100
AcDbEntity
  8
1外形線
100
AcDbCircle
 10
924.8836895745339
 20
291.3411232987458
 30
0.0
 40
0.5
100
AcDbArc
 50
198.4349488229279
 51
270.0
  0
ARC
  5
7CE
330
A92
100
AcDbEntity
  8
1外形線
100
AcDbCircle
 10
925.5233099645062
 20
291.3411232987458
 30
0.0
 40
0.5
100
AcDbArc
 50
270.0
 51
0.0
  0
LINE
  5
7CF
330
A92
100
AcDbEntity
  8
1外形線
100
AcDbLine
 10
918.4233099645059
 20
290.8411232987459
 30
0.0
 11
916.4233099645057
 21
293.8411232987461
 31
0.0
  0
LINE
  5
7D0
330
A92
100
AcDbEntity
  8
1外形線
100
AcDbLine
 10
918.4233099645059
 20
295.8411232987458
 30
0.0
 11
918.4233099645059
 21
290.8411232987459
 31
0.0
  0
LINE
  5
7D1
330
A92
100
AcDbEntity
  8
1外形線
100
AcDbLine
 10
921.5233099645059
 20
290.8411232987459
 30
0.0
 11
921.5233099645059
 21
294.8411232987459
 31
0.0
  0
LINE
  5
7D2
330
A92
100
AcDbEntity
  8
1外形線
100
AcDbLine
 10
918.4233099645059
 20
290.8411232987459
 30
0.0
 11
916.4233099645057
 21
287.8411232987458
 31
0.0
  0
LINE
  5
7D3
330
A92
100
AcDbEntity
  8
1外形線
100
AcDbLine
 10
919.7233099645059
 20
290.8411232987459
 30
0.0
 11
921.5233099645056
 21
290.8411232987459
 31
0.0
  0
LINE
  5
7D4
330
A92
100
AcDbEntity
  8
1外形線
100
AcDbLine
 10
919.7233099645059
 20
295.8411232987458
 30
0.0
 11
918.4233099645059
 21
295.8411232987458
 31
0.0
  0
ARC
  5
7D5
330
A92
100
AcDbEntity
  8
1外形線
100
AcDbCircle
 10
922.5233099645059
 20
294.8411232987459
 30
0.0
 40
1.0
100
AcDbArc
 50
90.0
 51
180.0
  0
LINE
  5
7D6
330
A92
100
AcDbEntity
  8
1外形線
100
AcDbLine
 10
922.5233099645059
 20
295.8411232987458
 30
0.0
 11
923.5233099645057
 21
295.8411232987458
 31
0.0
  0
LINE
  5
7D7
330
A92
100
AcDbEntity
  8
1外形線
100
AcDbLine
 10
916.4233099645057
 20
306.8411602327879
 30
0.0
 11
916.4233099645057
 21
293.8411232987461
 31
0.0
  0
LINE
  5
7D8
330
A92
100
AcDbEntity
  8
1外形線
100
AcDbLine
 10
989.723309964506
 20
331.8411232987458
 30
0.0
 11
1034.723309964506
 21
331.8411232987458
 31
0.0
  0
LINE
  5
7D9
330
A92
100
AcDbEntity
  8
1外形線
100
AcDbLine
 10
1034.781554665824
 20
329.8419715899533
 30
0.0
 11
989.723309964506
 21
329.8411232987458
 31
0.0
  0
LINE
  5
7DA
330
A92
100
AcDbEntity
  8
1外形線
100
AcDbLine
 10
989.723309964506
 20
250.8411232987459
 30
0.0
 11
1038.723309964506
 21
250.8411232987461
 31
0.0
  0
LINE
  5
7DB
330
A92
100
AcDbEntity
  8
1外形線
100
AcDbLine
 10
989.723309964506
 20
252.8411232987458
 30
0.0
 11
1037.723309964506
 21
252.8411232987458
 31
0.0
  0
LINE
  5
7DC
330
A92
100
AcDbEntity
  8
1外形線
100
AcDbLine
 10
1037.723309964506
 20
254.8411232987458
 30
0.0
 11
989.723309964506
 21
254.8411232987456
 31
0.0
  0
LINE
  5
7DD
330
A92
100
AcDbEntity
  8
1外形線
100
AcDbLine
 10
1035.723288044949
 20
334.1411602327793
 30
0.0
 11
989.723309964506
 21
334.1411232987459
 31
0.0
  0
LINE
  5
7DE
330
A92
100
AcDbEntity
  8
1外形線
100
AcDbLine
 10
1063.023309964505
 20
287.8411232987462
 30
0.0
 11
1063.023309964505
 21
275.1411232987458
 31
0.0
  0
LINE
  5
7DF
330
A92
100
AcDbEntity
  8
1外形線
100
AcDbLine
 10
1055.923309964506
 20
266.5489583220948
 30
0.0
 11
1055.923309964506
 21
315.7607645471371
 31
0.0
  0
LINE
  5
7E0
330
A92
100
AcDbEntity
  8
1外形線
100
AcDbLine
 10
1059.723309964506
 20
274.8411232987459
 30
0.0
 11
1059.723309964506
 21
306.8411232987458
 31
0.0
  0
ARC
  5
7E1
330
A92
100
AcDbEntity
  8
1外形線
100
AcDbCircle
 10
1038.723309964506
 20
275.1411232987458
 30
0.0
 40
24.29999999999984
100
AcDbArc
 50
270.0
 51
0.0
  0
ARC
  5
7E2
330
A92
100
AcDbEntity
  8
1外形線
100
AcDbCircle
 10
1037.723309964506
 20
274.8411232987459
 30
0.0
 40
20.0
100
AcDbArc
 50
270.0
 51
335.5053515285799
  0
ARC
  5
7E3
330
A92
100
AcDbEntity
  8
1外形線
100
AcDbCircle
 10
1037.723309964506
 20
274.8411232987459
 30
0.0
 40
22.0
100
AcDbArc
 50
270.0
 51
0.0
  0
ARC
  5
7E4
330
A92
100
AcDbEntity
  8
1外形線
100
AcDbCircle
 10
1053.923309964506
 20
291.3411232987458
 30
0.0
 40
0.5
100
AcDbArc
 50
180.0
 51
270.0
  0
ARC
  5
7E5
330
A92
100
AcDbEntity
  8
1外形線
100
AcDbCircle
 10
1034.723309964506
 20
306.8411232987458
 30
0.0
 40
23.0
100
AcDbArc
 50
22.81833006483894
 51
90.0
  0
ARC
  5
7E6
330
A92
100
AcDbEntity
  8
1外形線
100
AcDbCircle
 10
1034.723309964506
 20
306.8411232987458
 30
0.0
 40
25.0
100
AcDbArc
 50
0.0
 51
90.0
  0
LINE
  5
7E7
330
A92
100
AcDbEntity
  8
1外形線
  6
Continuous
100
AcDbLine
 10
1053.423309964506
 20
291.3411232987458
 30
0.0
 11
1053.423309964506
 21
320.2317916913241
 31
0.0
  0
ARC
  5
7E8
330
A92
100
AcDbEntity
  8
1外形線
100
AcDbCircle
 10
1054.562930354478
 20
291.3411232987458
 30
0.0
 40
0.5
100
AcDbArc
 50
270.0
 51
341.5650511770721
  0
LINE
  5
7E9
330
A92
100
AcDbEntity
  8
1外形線
100
AcDbLine
 10
1056.923309964505
 20
295.8411232987458
 30
0.0
 11
1055.923309964506
 21
295.8411232987458
 31
0.0
  0
LINE
  5
7EA
330
A92
100
AcDbEntity
  8
1外形線
100
AcDbLine
 10
1055.037272003503
 20
291.1830094157373
 30
0.0
 11
1055.923309964506
 21
293.8411232987458
 31
0.0
  0
LINE
  5
7EB
330
A92
100
AcDbEntity
  8
1外形線
100
AcDbLine
 10
1054.562930354478
 20
290.8411232987459
 30
0.0
 11
1053.923309964506
 21
290.8411232987459
 31
0.0
  0
LINE
  5
7EC
330
A92
100
AcDbEntity
  8
1外形線
100
AcDbLine
 10
1059.723309964506
 20
290.8411232987459
 30
0.0
 11
1057.923309964506
 21
290.8411232987459
 31
0.0
  0
LINE
  5
7ED
330
A92
100
AcDbEntity
  8
1外形線
100
AcDbLine
 10
1061.023309964506
 20
290.8411232987459
 30
0.0
 11
1063.023309964505
 21
293.8411232987461
 31
0.0
  0
LINE
  5
7EE
330
A92
100
AcDbEntity
  8
1外形線
100
AcDbLine
 10
1063.023309964506
 20
306.8411602327879
 30
0.0
 11
1063.023309964505
 21
293.8411232987461
 31
0.0
  0
LINE
  5
7EF
330
A92
100
AcDbEntity
  8
1外形線
100
AcDbLine
 10
1059.723309964506
 20
295.8411232987458
 30
0.0
 11
1061.023309964506
 21
295.8411232987458
 31
0.0
  0
LINE
  5
7F0
330
A92
100
AcDbEntity
  8
1外形線
100
AcDbLine
 10
1061.023309964506
 20
295.8411232987458
 30
0.0
 11
1061.023309964506
 21
290.8411232987459
 31
0.0
  0
LINE
  5
7F1
330
A92
100
AcDbEntity
  8
1外形線
100
AcDbLine
 10
1061.023309964506
 20
290.8411232987459
 30
0.0
 11
1063.023309964506
 21
287.8411232987458
 31
0.0
  0
LINE
  5
7F2
330
A92
100
AcDbEntity
  8
1外形線
100
AcDbLine
 10
1057.923309964506
 20
290.8411232987459
 30
0.0
 11
1057.923309964506
 21
294.8411232987459
 31
0.0
  0
ARC
  5
7F3
330
A92
100
AcDbEntity
  8
1外形線
100
AcDbCircle
 10
1056.923309964505
 20
294.8411232987459
 30
0.0
 40
1.0
100
AcDbArc
 50
0.0
 51
90.0
  0
LINE
  5
7F4
330
A92
100
AcDbEntity
  8
1外形線
100
AcDbLine
 10
1149.61854081814
 20
324.8411232987461
 30
0.0
 11
1145.61854081814
 21
324.8411232987461
 31
0.0
  0
LINE
  5
7F5
330
A92
100
AcDbEntity
  8
1外形線
100
AcDbLine
 10
1144.61854081814
 20
279.8411232987461
 30
0.0
 11
1150.61854081814
 21
279.8411232987461
 31
0.0
  0
LINE
  5
7F6
330
A92
100
AcDbEntity
  8
1外形線
100
AcDbLine
 10
1144.61854081814
 20
282.8411232987461
 30
0.0
 11
1150.61854081814
 21
282.8411232987461
 31
0.0
  0
LINE
  5
7F7
330
A92
100
AcDbEntity
  8
1外形線
100
AcDbLine
 10
1150.61854081814
 20
285.8411232987461
 30
0.0
 11
1144.61854081814
 21
285.8411232987461
 31
0.0
  0
LINE
  5
7F8
330
A92
100
AcDbEntity
  8
1外形線
100
AcDbLine
 10
1150.61854081814
 20
250.8411232987461
 30
0.0
 11
1118.61854081814
 21
250.8411232987462
 31
0.0
  0
LINE
  5
7F9
330
A92
100
AcDbEntity
  8
1外形線
100
AcDbLine
 10
1088.61854081814
 20
252.8411232987461
 30
0.0
 11
1088.61854081814
 21
331.8411232987458
 31
0.0
  0
LINE
  5
7FA
330
A92
100
AcDbEntity
  8
1外形線
100
AcDbLine
 10
1118.61854081814
 20
250.8411232987462
 30
0.0
 11
1118.61854081814
 21
332.9965566005268
 31
0.0
  0
LINE
  5
7FB
330
A92
100
AcDbEntity
  8
1外形線
100
AcDbLine
 10
1144.61854081814
 20
279.8411232987461
 30
0.0
 11
1118.61854081814
 21
287.8411232987462
 31
0.0
  0
LINE
  5
7FC
330
A92
100
AcDbEntity
  8
1外形線
100
AcDbLine
 10
1118.61854081814
 20
252.8411232987461
 30
0.0
 11
1088.61854081814
 21
252.8411232987461
 31
0.0
  0
LINE
  5
7FD
330
A92
100
AcDbEntity
  8
1外形線
100
AcDbLine
 10
1144.61854081814
 20
279.8411232987461
 30
0.0
 11
1144.61854081814
 21
250.8411232987461
 31
0.0
  0
LINE
  5
7FE
330
A92
100
AcDbEntity
  8
1外形線
100
AcDbLine
 10
1131.727670799241
 20
251.9849003404428
 30
0.0
 11
1118.61854081814
 21
252.3908506587218
 31
0.0
  0
ARC
  5
7FF
330
A92
100
AcDbEntity
  8
1外形線
100
AcDbCircle
 10
1132.191953114071
 20
266.9777133497529
 30
0.0
 40
15.0
100
AcDbArc
 50
268.226288900459
 51
270.0
  0
LINE
  5
800
330
A92
100
AcDbEntity
  8
1外形線
100
AcDbLine
 10
1144.61854081814
 20
251.9777133497528
 30
0.0
 11
1132.191953114071
 21
251.9777133497528
 31
0.0
  0
LINE
  5
801
330
A92
100
AcDbEntity
  8
1外形線
100
AcDbLine
 10
1130.892322824991
 20
263.7677281111722
 30
0.0
 11
1118.61854081814
 21
265.5419158922744
 31
0.0
  0
LINE
  5
802
330
A92
100
AcDbEntity
  8
1外形線
100
AcDbLine
 10
1131.388790917119
 20
256.6819848742941
 30
0.0
 11
1118.61854081814
 21
257.6584285159131
 31
0.0
  0
ARC
  5
803
330
A92
100
AcDbEntity
  8
1外形線
100
AcDbCircle
 10
1133.03828419178
 20
278.6134295028966
 30
0.0
 40
15.0
100
AcDbArc
 50
261.77480897893
 51
270.0
  0
ARC
  5
804
330
A92
100
AcDbEntity
  8
1外形線
100
AcDbCircle
 10
1132.532388383787
 20
271.6383275032336
 30
0.0
 40
15.0
100
AcDbArc
 50
265.6275366171859
 51
270.0
  0
LINE
  5
805
330
A92
100
AcDbEntity
  8
1外形線
100
AcDbLine
 10
1144.61854081814
 20
256.6383275032334
 30
0.0
 11
1132.532388383787
 21
256.6383275032336
 31
0.0
  0
LINE
  5
806
330
A92
100
AcDbEntity
  8
1外形線
100
AcDbLine
 10
1144.61854081814
 20
263.613429502897
 30
0.0
 11
1133.03828419178
 21
263.6134295028966
 31
0.0
  0
LINE
  5
807
330
A92
100
AcDbEntity
  8
1外形線
100
AcDbLine
 10
1088.61854081814
 20
331.8411232987458
 30
0.0
 11
1118.61854081814
 21
331.8411232987458
 31
0.0
  0
LINE
  5
808
330
A92
100
AcDbEntity
  8
1外形線
100
AcDbLine
 10
1088.61854081814
 20
290.8411232987463
 30
0.0
 11
1118.61854081814
 21
290.8411232987463
 31
0.0
  0
LINE
  5
809
330
A92
100
AcDbEntity
  8
1外形線
100
AcDbLine
 10
1088.61854081814
 20
331.8411232987458
 30
0.0
 11
1118.61854081814
 21
331.8411232987458
 31
0.0
  0
ARC
  5
80A
330
A92
100
AcDbEntity
  8
1外形線
100
AcDbCircle
 10
1142.534684833141
 20
324.1168673916927
 30
0.0
 40
15.0
100
AcDbArc
 50
240.0000000000055
 51
269.9999999999968
  0
LINE
  5
80B
330
A92
100
AcDbEntity
  8
1外形線
100
AcDbLine
 10
1144.61854081814
 20
323.8411232987461
 30
0.0
 11
1144.61854081814
 21
285.8411232987461
 31
0.0
  0
LINE
  5
80C
330
A92
100
AcDbEntity
  8
1外形線
100
AcDbLine
 10
1144.61854081814
 20
282.8411232987461
 30
0.0
 11
1118.61854081814
 21
290.8411232987463
 31
0.0
  0
LINE
  5
80D
330
A92
100
AcDbEntity
  8
1外形線
100
AcDbLine
 10
1144.61854081814
 20
285.8411232987461
 30
0.0
 11
1118.61854081814
 21
293.8411232987462
 31
0.0
  0
LINE
  5
80E
330
A92
100
AcDbEntity
  8
1外形線
100
AcDbLine
 10
1144.61854081814
 20
309.1168673916904
 30
0.0
 11
1142.53468483314
 21
309.1168673916904
 31
0.0
  0
LINE
  5
80F
330
A92
100
AcDbEntity
  8
1外形線
100
AcDbLine
 10
1135.034684833141
 20
311.1264863349236
 30
0.0
 11
1118.61854081814
 21
320.6043515010402
 31
0.0
  0
LINE
  5
810
330
A92
100
AcDbEntity
  8
1外形線
100
AcDbLine
 10
1135.034684833141
 20
319.0748583810501
 30
0.0
 11
1118.61854081814
 21
328.5527235471665
 31
0.0
  0
LINE
  5
811
330
A92
100
AcDbEntity
  8
1外形線
100
AcDbLine
 10
1135.034684833141
 20
324.3857907885074
 30
0.0
 11
1118.905688743033
 21
333.6978710228899
 31
0.0
  0
LINE
  5
812
330
A92
100
AcDbEntity
  8
1外形線
100
AcDbLine
 10
1135.034684833141
 20
325.2507422419796
 30
0.0
 11
1120.118540818141
 21
333.8625820043114
 31
0.0
  0
ARC
  5
813
330
A92
100
AcDbEntity
  8
1外形線
100
AcDbCircle
 10
1119.61854081814
 20
332.9965566005266
 30
0.0
 40
1.0
100
AcDbArc
 50
60.00000000000555
 51
179.999999999987
  0
ARC
  5
814
330
A92
100
AcDbEntity
  8
1外形線
100
AcDbCircle
 10
1142.534684833141
 20
332.065239437819
 30
0.0
 40
15.0
100
AcDbArc
 50
240.0000000000055
 51
269.9999999999968
  0
ARC
  5
815
330
A92
100
AcDbEntity
  8
1外形線
100
AcDbCircle
 10
1142.534684833141
 20
337.3761718452765
 30
0.0
 40
15.0
100
AcDbArc
 50
240.0000000000055
 51
269.9999999999968
  0
ARC
  5
816
330
A92
100
AcDbEntity
  8
1外形線
100
AcDbCircle
 10
1142.534684833141
 20
338.2411232987485
 30
0.0
 40
15.0
100
AcDbArc
 50
240.0000000000055
 51
269.9999999999968
  0
ARC
  5
817
330
A92
100
AcDbEntity
  8
1外形線
100
AcDbCircle
 10
1145.61854081814
 20
323.8411232987461
 30
0.0
 40
1.0
100
AcDbArc
 50
90.0
 51
180.0
  0
LINE
  5
818
330
A92
100
AcDbEntity
  8
1外形線
100
AcDbLine
 10
1144.61854081814
 20
317.0652394378168
 30
0.0
 11
1142.53468483314
 21
317.0652394378168
 31
0.0
  0
LINE
  5
819
330
A92
100
AcDbEntity
  8
1外形線
100
AcDbLine
 10
1142.53468483314
 20
323.2411232987462
 30
0.0
 11
1144.61854081814
 21
323.2411232987462
 31
0.0
  0
LINE
  5
81A
330
A92
100
AcDbEntity
  8
1外形線
100
AcDbLine
 10
1144.61854081814
 20
322.3761718452742
 30
0.0
 11
1142.53468483314
 21
322.3761718452742
 31
0.0
  0
LINE
  5
81B
330
A92
100
AcDbEntity
  8
1外形線
100
AcDbLine
 10
1150.61854081814
 20
250.8411232987461
 30
0.0
 11
1150.61854081814
 21
323.8411232987461
 31
0.0
  0
ARC
  5
81C
330
A92
100
AcDbEntity
  8
1外形線
100
AcDbCircle
 10
1149.61854081814
 20
323.8411232987461
 30
0.0
 40
1.0
100
AcDbArc
 50
0.0
 51
90.0
  0
TEXT
  5
81D
330
A92
100
AcDbEntity
  8
1外形線
100
AcDbText
 10
916.4233100968408
 20
485.6879227810217
 30
0.0
 40
10.0
  1
ST-140-100
  7
KANJI
100
AcDbText
  0
LINE
  5
81E
330
A92
100
AcDbEntity
  8
1外形線
100
AcDbLine
 10
989.7233099645054
 20
390.5438460184606
 30
0.0
 11
918.4707873839617
 21
390.5438460184604
 31
0.0
  0
LINE
  5
81F
330
A92
100
AcDbEntity
  8
1外形線
100
AcDbLine
 10
935.223309964506
 20
416.5438460184601
 30
0.0
 11
989.7233099645054
 21
416.5438460184605
 31
0.0
  0
LINE
  5
820
330
A92
100
AcDbEntity
  8
1外形線
100
AcDbLine
 10
989.7233099645054
 20
422.5438460184606
 30
0.0
 11
935.7233099645059
 21
422.5438460184602
 31
0.0
  0
LINE
  5
821
330
A92
100
AcDbEntity
  8
1外形線
100
AcDbLine
 10
989.723309964506
 20
360.5438460184606
 30
0.0
 11
919.7233099645059
 21
360.5438460184601
 31
0.0
  0
LINE
  5
822
330
A92
100
AcDbEntity
  8
1外形線
100
AcDbLine
 10
969.7233099645062
 20
867.2575850850966
 30
0.0
 11
917.4293971192341
 21
867.2575850850966
 31
0.0
  0
LINE
  5
823
330
A92
100
AcDbEntity
  8
1外形線
100
AcDbLine
 10
969.7233099645062
 20
837.2575850850969
 30
0.0
 11
919.697346311665
 21
837.2575850850964
 31
0.0
  0
LINE
  5
824
330
A92
100
AcDbEntity
  8
1外形線
100
AcDbLine
 10
944.7233099645062
 20
802.270528406427
 30
0.0
 11
969.7233099645062
 21
802.270528406427
 31
0.0
  0
LINE
  5
825
330
A92
100
AcDbEntity
  8
1外形線
100
AcDbLine
 10
944.6650652631872
 20
800.2713766976341
 30
0.0
 11
969.7233099645062
 21
800.2705284064271
 31
0.0
  0
LINE
  5
826
330
A92
100
AcDbEntity
  8
1外形線
100
AcDbLine
 10
943.7233354909194
 20
804.5705653395932
 30
0.0
 11
969.7233099645062
 21
804.5705410287476
 31
0.0
  0
LINE
  5
827
330
A92
100
AcDbEntity
  8
1外形線
100
AcDbLine
 10
969.7233099645062
 20
733.3804014616585
 30
0.0
 11
941.7233099645063
 21
733.3804014616585
 31
0.0
  0
LINE
  5
828
330
A92
100
AcDbEntity
  8
1外形線
100
AcDbLine
 10
941.7233099645063
 20
735.3804014616585
 30
0.0
 11
969.7233099645062
 21
735.3804014616585
 31
0.0
  0
LINE
  5
829
330
A92
100
AcDbEntity
  8
1外形線
100
AcDbLine
 10
969.7233099645062
 20
731.3804014616585
 30
0.0
 11
940.7233099645063
 21
731.3804014616585
 31
0.0
  0
LINE
  5
82A
330
A92
100
AcDbEntity
  8
C4
100
AcDbLine
 10
771.3233099645062
 20
337.5137687289495
 30
0.0
 11
791.4233099645062
 21
337.5137687289499
 31
0.0
  0
LINE
  5
82B
330
A92
100
AcDbEntity
  8
C4
100
AcDbLine
 10
759.3233099645062
 20
333.66376872895
 30
0.0
 11
789.3233099645063
 21
333.66376872895
 31
0.0
  0
LINE
  5
82C
330
A92
100
AcDbEntity
  8
C4
100
AcDbLine
 10
731.5233099645061
 20
263.66376872895
 30
0.0
 11
731.5233099645061
 21
312.5137687289495
 31
0.0
  0
LINE
  5
82D
330
A92
100
AcDbEntity
  8
C4
100
AcDbLine
 10
734.3233099645062
 20
263.66376872895
 30
0.0
 11
734.3233099645062
 21
308.66376872895
 31
0.0
  0
ARC
  5
82E
330
A92
100
AcDbEntity
  8
C4
100
AcDbCircle
 10
756.5233099645061
 20
312.5137687289495
 30
0.0
 40
25.0
100
AcDbArc
 50
90.0
 51
180.0
  0
ARC
  5
82F
330
A92
100
AcDbEntity
  8
C4
100
AcDbCircle
 10
759.3233099645062
 20
308.66376872895
 30
0.0
 40
25.0
100
AcDbArc
 50
90.0
 51
180.0
  0
LINE
  5
830
330
A92
100
AcDbEntity
  8
1外形線
100
AcDbLine
 10
768.3233099645063
 20
336.0137687289495
 30
0.0
 11
768.3233099645063
 21
334.9637687289497
 31
0.0
  0
LINE
  5
831
330
A92
100
AcDbEntity
  8
C4
100
AcDbLine
 10
768.3233099645063
 20
334.9637687289497
 30
0.0
 11
763.3233099645062
 21
334.9637687289497
 31
0.0
  0
LINE
  5
832
330
A92
100
AcDbEntity
  8
C4
100
AcDbLine
 10
763.3233099645062
 20
334.9637687289497
 30
0.0
 11
763.3233099645062
 21
333.66376872895
 31
0.0
  0
LINE
  5
833
330
A92
100
AcDbEntity
  8
C4
100
AcDbLine
 10
756.5233099645061
 20
337.5137687289495
 30
0.0
 11
765.3233099645063
 21
337.5137687289495
 31
0.0
  0
LINE
  5
834
330
A92
100
AcDbEntity
  8
C4
100
AcDbLine
 10
768.3233099645063
 20
336.0137687289495
 30
0.0
 11
765.3233099645063
 21
336.8137687289496
 31
0.0
  0
LINE
  5
835
330
A92
100
AcDbEntity
  8
C4
100
AcDbLine
 10
768.3233099645063
 20
336.0137687289495
 30
0.0
 11
771.3233099645062
 21
336.8137687289496
 31
0.0
  0
LINE
  5
836
330
A92
100
AcDbEntity
  8
C4
100
AcDbLine
 10
771.3233099645062
 20
336.8137687289496
 30
0.0
 11
771.3233099645061
 21
337.5137687289496
 31
0.0
  0
LINE
  5
837
330
A92
100
AcDbEntity
  8
C4
100
AcDbLine
 10
765.3233099645063
 20
336.8137687289496
 30
0.0
 11
765.3233099645062
 21
337.5137687289496
 31
0.0
  0
LINE
  5
838
330
A92
100
AcDbEntity
  8
C4
100
AcDbLine
 10
811.8233099645063
 20
305.66376872895
 30
0.0
 11
811.8233099645063
 21
319.561016087802
 31
0.0
  0
LINE
  5
839
330
A92
100
AcDbEntity
  8
C4
100
AcDbLine
 10
814.3233099645062
 20
308.66376872895
 30
0.0
 11
814.3233099645062
 21
263.66376872895
 31
0.0
  0
LINE
  5
83A
330
A92
100
AcDbEntity
  8
C4
100
AcDbLine
 10
816.4233099645064
 20
312.5137687289496
 30
0.0
 11
816.4233099645066
 21
263.66376872895
 31
0.0
  0
LINE
  5
83B
330
A92
100
AcDbEntity
  8
C4
100
AcDbLine
 10
811.8233099645063
 20
265.66376872895
 30
0.0
 11
811.8233099645063
 21
301.66376872895
 31
0.0
  0
LINE
  5
83C
330
A92
100
AcDbEntity
  8
C4
100
AcDbLine
 10
811.3233099645063
 20
265.66376872895
 30
0.0
 11
814.3233099645062
 21
265.66376872895
 31
0.0
  0
LINE
  5
83D
330
A92
100
AcDbEntity
  8
C4
100
AcDbLine
 10
811.3233099645063
 20
265.66376872895
 30
0.0
 11
814.3233099645062
 21
265.66376872895
 31
0.0
  0
LINE
  5
83E
330
A92
100
AcDbEntity
  8
C4
100
AcDbLine
 10
811.3233099645063
 20
265.66376872895
 30
0.0
 11
811.3233099645063
 21
263.66376872895
 31
0.0
  0
LINE
  5
83F
330
A92
100
AcDbEntity
  8
C4
100
AcDbLine
 10
811.3233099645063
 20
265.66376872895
 30
0.0
 11
811.3233099645063
 21
263.66376872895
 31
0.0
  0
LINE
  5
840
330
A92
100
AcDbEntity
  8
C4
100
AcDbLine
 10
811.3233099645063
 20
261.66376872895
 30
0.0
 11
814.3233099645062
 21
261.66376872895
 31
0.0
  0
LINE
  5
841
330
A92
100
AcDbEntity
  8
C4
100
AcDbLine
 10
811.3233099645063
 20
261.66376872895
 30
0.0
 11
814.3233099645062
 21
261.66376872895
 31
0.0
  0
LINE
  5
842
330
A92
100
AcDbEntity
  8
C4
100
AcDbLine
 10
811.3233099645063
 20
261.66376872895
 30
0.0
 11
811.3233099645063
 21
263.66376872895
 31
0.0
  0
LINE
  5
843
330
A92
100
AcDbEntity
  8
C4
100
AcDbLine
 10
811.3233099645063
 20
261.66376872895
 30
0.0
 11
811.3233099645063
 21
263.66376872895
 31
0.0
  0
LINE
  5
844
330
A92
100
AcDbEntity
  8
C4
100
AcDbLine
 10
811.3233099645063
 20
301.66376872895
 30
0.0
 11
814.3233099645062
 21
301.66376872895
 31
0.0
  0
LINE
  5
845
330
A92
100
AcDbEntity
  8
C4
100
AcDbLine
 10
811.3233099645063
 20
305.66376872895
 30
0.0
 11
814.3233099645062
 21
305.66376872895
 31
0.0
  0
LINE
  5
846
330
A92
100
AcDbEntity
  8
C4
100
AcDbLine
 10
811.3233099645063
 20
305.66376872895
 30
0.0
 11
811.3233099645063
 21
301.66376872895
 31
0.0
  0
ARC
  5
847
330
A92
100
AcDbEntity
  8
C4
100
AcDbCircle
 10
791.4233099645064
 20
312.5137687289495
 30
0.0
 40
25.0
100
AcDbArc
 50
0.0
 51
90.0
  0
ARC
  5
848
330
A92
100
AcDbEntity
  8
C4
100
AcDbCircle
 10
789.3233099645066
 20
308.66376872895
 30
0.0
 40
25.0
100
AcDbArc
 50
0.0
 51
90.0
  0
LINE
  5
849
330
A92
100
AcDbEntity
  8
1外形線
100
AcDbLine
 10
946.368584679636
 20
402.5780569781939
 30
0.0
 11
932.026770534337
 21
390.5438460184606
 31
0.0
  0
LINE
  5
84A
330
A92
100
AcDbEntity
  8
1外形線
100
AcDbLine
 10
938.0485356472258
 20
402.5780569781939
 30
0.0
 11
923.7067215019271
 21
390.5438460184606
 31
0.0
  0
LINE
  5
84B
330
A92
100
AcDbEntity
  8
1外形線
100
AcDbLine
 10
931.5959097662874
 20
402.5780569781939
 30
0.0
 11
917.6945375169804
 21
390.9134206509421
 31
0.0
  0
LINE
  5
84C
330
A92
100
AcDbEntity
  8
1外形線
100
AcDbLine
 10
930.0651241098051
 20
402.5780569781939
 30
0.0
 11
917.8279997742746
 21
392.3098904615799
 31
0.0
  0
LINE
  5
84D
330
A92
100
AcDbEntity
  8
1外形線
100
AcDbLine
 10
919.7233099645059
 20
360.5438460184601
 30
0.0
 11
919.7233099645059
 21
390.5438460184604
 31
0.0
  0
ARC
  5
84E
330
A92
100
AcDbEntity
  8
1外形線
100
AcDbCircle
 10
918.4707873839622
 20
391.5438460184608
 30
0.0
 40
1.0
100
AcDbArc
 50
130.0000000000359
 51
269.9999999999804
  0
ARC
  5
84F
330
A92
100
AcDbEntity
  8
1外形線
100
AcDbCircle
 10
920.423309964506
 20
414.068723624979
 30
0.0
 40
15.0
100
AcDbArc
 50
310.0000000000016
 51
0.0
  0
ARC
  5
850
330
A92
100
AcDbEntity
  8
1外形線
100
AcDbCircle
 10
935.7233099645059
 20
421.5438460184601
 30
0.0
 40
1.0
100
AcDbArc
 50
90.0
 51
180.0
  0
ARC
  5
851
330
A92
100
AcDbEntity
  8
1外形線
100
AcDbCircle
 10
936.7267705343365
 20
414.068723624979
 30
0.0
 40
15.0
100
AcDbArc
 50
310.0000000000016
 51
0.0
  0
ARC
  5
852
330
A92
100
AcDbEntity
  8
1外形線
100
AcDbCircle
 10
928.4067215019266
 20
414.068723624979
 30
0.0
 40
15.0
100
AcDbArc
 50
310.0000000000016
 51
0.0
  0
ARC
  5
853
330
A92
100
AcDbEntity
  8
1外形線
100
AcDbCircle
 10
921.9540956209883
 20
414.068723624979
 30
0.0
 40
15.0
100
AcDbArc
 50
310.0000000000016
 51
0.0
  0
ARC
  5
854
330
A92
100
AcDbEntity
  8
1外形線
100
AcDbCircle
 10
935.223309964506
 20
417.0438460184601
 30
0.0
 40
0.5
100
AcDbArc
 50
180.0
 51
270.0
  0
LINE
  5
855
330
A92
100
AcDbEntity
  8
1外形線
100
AcDbLine
 10
943.4067215019263
 20
416.5438460184601
 30
0.0
 11
943.4067215019267
 21
414.0687236249794
 31
0.0
  0
LINE
  5
856
330
A92
100
AcDbEntity
  8
1外形線
100
AcDbLine
 10
936.9540956209879
 20
416.5438460184604
 30
0.0
 11
936.9540956209883
 21
414.0687236249794
 31
0.0
  0
LINE
  5
857
330
A92
100
AcDbEntity
  8
1外形線
  6
Continuous
100
AcDbLine
 10
935.4233099645057
 20
416.5438460184601
 30
0.0
 11
935.4233099645057
 21
414.0687236249794
 31
0.0
  0
LINE
  5
858
330
A92
100
AcDbEntity
  8
1外形線
  6
Continuous
100
AcDbLine
 10
934.7233099645054
 20
421.5438460184601
 30
0.0
 11
934.7233099645054
 21
417.0438460184601
 31
0.0
  0
LINE
  5
859
330
A92
100
AcDbEntity
  8
1外形線
100
AcDbLine
 10
951.7267705343366
 20
416.5438460184601
 30
0.0
 11
951.7267705343366
 21
414.0687236249794
 31
0.0
  0
LINE
  5
85A
330
A92
100
AcDbEntity
  8
C4
100
AcDbLine
 10
724.3217884810227
 20
692.5879213433618
 30
0.0
 11
724.3217884810227
 21
731.0291373096331
 31
0.0
  0
LINE
  5
85B
330
A92
100
AcDbEntity
  8
C4
100
AcDbLine
 10
732.5402092250546
 20
692.5879213433618
 30
0.0
 11
732.5402092250546
 21
736.4608555379684
 31
0.0
  0
LINE
  5
85C
330
A92
100
AcDbEntity
  8
C4
100
AcDbLine
 10
740.2233099645058
 20
783.5879213433615
 30
0.0
 11
740.2233099645058
 21
683.5879213433615
 31
0.0
  0
LINE
  5
85D
330
A92
100
AcDbEntity
  8
C4
100
AcDbLine
 10
738.1222890347507
 20
692.5879213433618
 30
0.0
 11
738.1222890347507
 21
744.6105844204662
 31
0.0
  0
LINE
  5
85E
330
A92
100
AcDbEntity
  8
C4
100
AcDbLine
 10
734.2233099645057
 20
765.0879213433618
 30
0.0
 11
734.2233099645057
 21
762.0879213433617
 31
0.0
  0
LINE
  5
85F
330
A92
100
AcDbEntity
  8
C4
100
AcDbLine
 10
737.2233099645058
 20
783.5879213433615
 30
0.0
 11
737.2233099645058
 21
755.0879213433615
 31
0.0
  0
ARC
  5
860
330
A92
100
AcDbEntity
  8
C4
100
AcDbCircle
 10
734.7233099645058
 20
762.0879213433616
 30
0.0
 40
0.5
100
AcDbArc
 50
180.0
 51
270.0
  0
LINE
  5
861
330
A92
100
AcDbEntity
  8
C4
100
AcDbLine
 10
735.2233099645058
 20
745.9227699534501
 30
0.0
 11
735.2233099645058
 21
761.5879213433617
 31
0.0
  0
LINE
  5
862
330
A92
100
AcDbEntity
  8
C4
100
AcDbLine
 10
734.7233099645058
 20
761.5879213433617
 30
0.0
 11
737.2233099645058
 21
761.5879213433617
 31
0.0
  0
LINE
  5
863
330
A92
100
AcDbEntity
  8
C4
100
AcDbLine
 10
735.2233099645058
 20
765.5879213433616
 30
0.0
 11
735.2233099645058
 21
801.5879213433613
 31
0.0
  0
LINE
  5
864
330
A92
100
AcDbEntity
  8
C4
100
AcDbLine
 10
737.2233099645058
 20
783.5879213433615
 30
0.0
 11
737.2233099645058
 21
812.0879213433616
 31
0.0
  0
LINE
  5
865
330
A92
100
AcDbEntity
  8
C4
100
AcDbLine
 10
740.2233099645058
 20
783.587921343362
 30
0.0
 11
740.2233099645058
 21
812.3879213433617
 31
0.0
  0
ARC
  5
866
330
A92
100
AcDbEntity
  8
C4
100
AcDbCircle
 10
734.7233099645058
 20
765.0879213433616
 30
0.0
 40
0.5
100
AcDbArc
 50
90.0
 51
180.0
  0
LINE
  5
867
330
A92
100
AcDbEntity
  8
C4
100
AcDbLine
 10
734.7233099645058
 20
765.5879213433617
 30
0.0
 11
737.2233099645058
 21
765.5879213433617
 31
0.0
  0
ARC
  5
868
330
A92
100
AcDbEntity
  8
C4
100
AcDbCircle
 10
734.7233099645058
 20
802.0879213433612
 30
0.0
 40
0.5
100
AcDbArc
 50
180.0
 51
270.0
  0
LINE
  5
869
330
A92
100
AcDbEntity
  8
C4
100
AcDbLine
 10
734.2233099645057
 20
802.0879213433612
 30
0.0
 11
734.2233099645057
 21
805.0879213433615
 31
0.0
  0
ARC
  5
86A
330
A92
100
AcDbEntity
  8
C4
100
AcDbCircle
 10
734.7233099645058
 20
805.0879213433614
 30
0.0
 40
0.5
100
AcDbArc
 50
90.0
 51
180.0
  0
LINE
  5
86B
330
A92
100
AcDbEntity
  8
C4
100
AcDbLine
 10
734.7233099645058
 20
805.5879213433613
 30
0.0
 11
737.2233099645058
 21
805.5879213433613
 31
0.0
  0
LINE
  5
86C
330
A92
100
AcDbEntity
  8
C4
100
AcDbLine
 10
734.7233099645058
 20
801.5879213433613
 30
0.0
 11
737.2233099645058
 21
801.5879213433613
 31
0.0
  0
LINE
  5
86D
330
A92
100
AcDbEntity
  8
1外形線
100
AcDbLine
 10
918.423309964506
 20
771.3804014616584
 30
0.0
 11
916.4233099645061
 21
768.3804014616584
 31
0.0
  0
LINE
  5
86E
330
A92
100
AcDbEntity
  8
1外形線
100
AcDbLine
 10
919.7233099645062
 20
755.3804014616584
 30
0.0
 11
919.7233099645062
 21
777.270528406427
 31
0.0
  0
LINE
  5
86F
330
A92
100
AcDbEntity
  8
1外形線
100
AcDbLine
 10
923.5233099645059
 20
747.0882364850072
 30
0.0
 11
923.5233099645059
 21
786.1901696548179
 31
0.0
  0
ARC
  5
870
330
A92
100
AcDbEntity
  8
1外形線
100
AcDbCircle
 10
941.7233099645063
 20
755.3804014616584
 30
0.0
 40
22.0
100
AcDbArc
 50
180.0
 51
270.0
  0
ARC
  5
871
330
A92
100
AcDbEntity
  8
1外形線
100
AcDbCircle
 10
941.7233099645063
 20
755.3804014616584
 30
0.0
 40
20.0
100
AcDbArc
 50
204.4946484714201
 51
270.0
  0
ARC
  5
872
330
A92
100
AcDbEntity
  8
1外形線
100
AcDbCircle
 10
940.7233099645063
 20
755.6804014616582
 30
0.0
 40
24.29999999999984
100
AcDbArc
 50
180.0
 51
270.0
  0
LINE
  5
873
330
A92
100
AcDbEntity
  8
1外形線
100
AcDbLine
 10
916.4233099645063
 20
768.3804014616587
 30
0.0
 11
916.4233099645064
 21
755.6804014616582
 31
0.0
  0
ARC
  5
874
330
A92
100
AcDbEntity
  8
1外形線
100
AcDbCircle
 10
944.7233099645062
 20
777.270528406427
 30
0.0
 40
23.0
100
AcDbArc
 50
90.0
 51
157.181669935161
  0
ARC
  5
875
330
A92
100
AcDbEntity
  8
1外形線
100
AcDbCircle
 10
944.7233099645062
 20
777.270528406427
 30
0.0
 40
25.0
100
AcDbArc
 50
90.0
 51
180.0
  0
ARC
  5
876
330
A92
100
AcDbEntity
  8
1外形線
100
AcDbCircle
 10
943.7233099645061
 20
777.2705653396051
 30
0.0
 40
27.3
100
AcDbArc
 50
89.99994642653094
 51
180.0
  0
ARC
  5
877
330
A92
100
AcDbEntity
  8
1外形線
100
AcDbCircle
 10
924.8836895745343
 20
771.8804014616584
 30
0.0
 40
0.5
100
AcDbArc
 50
198.4349488229279
 51
270.0
  0
LINE
  5
878
330
A92
100
AcDbEntity
  8
1外形線
100
AcDbLine
 10
921.5233099645061
 20
771.3804014616584
 30
0.0
 11
921.5233099645061
 21
775.3804014616584
 31
0.0
  0
LINE
  5
879
330
A92
100
AcDbEntity
  8
1外形線
100
AcDbLine
 10
924.4093479255088
 20
771.7222875786501
 30
0.0
 11
923.5233099645059
 21
774.3804014616585
 31
0.0
  0
LINE
  5
87A
330
A92
100
AcDbEntity
  8
1外形線
100
AcDbLine
 10
922.5233099645063
 20
776.3804014616584
 30
0.0
 11
923.5233099645059
 21
776.3804014616584
 31
0.0
  0
ARC
  5
87B
330
A92
100
AcDbEntity
  8
1外形線
100
AcDbCircle
 10
922.5233099645063
 20
775.3804014616584
 30
0.0
 40
1.0
100
AcDbArc
 50
90.0
 51
180.0
  0
LINE
  5
87C
330
A92
100
AcDbEntity
  8
1外形線
100
AcDbLine
 10
924.8836895745343
 20
771.3804014616584
 30
0.0
 11
925.5233099645064
 21
771.3804014616584
 31
0.0
  0
ARC
  5
87D
330
A92
100
AcDbEntity
  8
1外形線
100
AcDbCircle
 10
925.5233099645064
 20
771.8804014616584
 30
0.0
 40
0.5
100
AcDbArc
 50
270.0
 51
0.0
  0
LINE
  5
87E
330
A92
100
AcDbEntity
  8
1外形線
100
AcDbLine
 10
918.423309964506
 20
771.3804014616584
 30
0.0
 11
916.4293971192341
 21
774.3712707295665
 31
0.0
  0
LINE
  5
87F
330
A92
100
AcDbEntity
  8
1外形線
100
AcDbLine
 10
918.423309964506
 20
776.3804014616584
 30
0.0
 11
918.423309964506
 21
771.3804014616584
 31
0.0
  0
LINE
  5
880
330
A92
100
AcDbEntity
  8
1外形線
100
AcDbLine
 10
919.7233099645062
 20
776.3804014616584
 30
0.0
 11
918.423309964506
 21
776.3804014616584
 31
0.0
  0
LINE
  5
881
330
A92
100
AcDbEntity
  8
1外形線
100
AcDbLine
 10
919.7233099645062
 20
771.3804014616584
 30
0.0
 11
921.5233099645059
 21
771.3804014616584
 31
0.0
  0
LINE
  5
882
330
A92
100
AcDbEntity
  8
1外形線
  6
Continuous
100
AcDbLine
 10
926.0233099645063
 20
771.8804014616584
 30
0.0
 11
926.0233099645059
 21
790.6611967990052
 31
0.0
  0
LINE
  5
883
330
A92
100
AcDbEntity
  8
1外形線
100
AcDbLine
 10
916.4233099645063
 20
777.2705653396051
 30
0.0
 11
916.4293971192341
 21
774.3712707295665
 31
0.0
  0
LINE
  5
884
330
A92
100
AcDbEntity
  8
1外形線
100
AcDbLine
 10
945.0496135046297
 20
877.0071550400301
 30
0.0
 11
930.4311981265447
 21
867.2575850850966
 31
0.0
  0
LINE
  5
885
330
A92
100
AcDbEntity
  8
1外形線
100
AcDbLine
 10
936.7295644722192
 20
877.0071550400301
 30
0.0
 11
922.1111490941339
 21
867.2575850850966
 31
0.0
  0
LINE
  5
886
330
A92
100
AcDbEntity
  8
1外形線
100
AcDbLine
 10
919.697346311665
 20
837.2575850850964
 30
0.0
 11
919.697346311665
 21
867.2575850850966
 31
0.0
  0
LINE
  5
887
330
A92
100
AcDbEntity
  8
1外形線
100
AcDbLine
 10
930.276938591281
 20
877.0071550400304
 30
0.0
 11
916.5233634392743
 21
867.8343794958395
 31
0.0
  0
LINE
  5
888
330
A92
100
AcDbEntity
  8
1外形線
100
AcDbLine
 10
928.7461529347988
 20
877.0071550400301
 30
0.0
 11
916.8745409212146
 21
869.0895313571116
 31
0.0
  0
ARC
  5
889
330
A92
100
AcDbEntity
  8
1外形線
100
AcDbCircle
 10
917.4293971192341
 20
868.2575850850966
 30
0.0
 40
1.0
100
AcDbArc
 50
123.7008106303348
 51
270.0
  0
LINE
  5
88A
330
A92
100
AcDbEntity
  8
1外形線
100
AcDbLine
 10
989.723309964506
 20
360.5438460184606
 30
0.0
 11
1059.723309964506
 21
360.5438460184609
 31
0.0
  0
LINE
  5
88B
330
A92
100
AcDbEntity
  8
1外形線
100
AcDbLine
 10
1044.223309964505
 20
416.5438460184605
 30
0.0
 11
989.723309964506
 21
416.5438460184605
 31
0.0
  0
LINE
  5
88C
330
A92
100
AcDbEntity
  8
1外形線
100
AcDbLine
 10
989.723309964506
 20
422.5438460184606
 30
0.0
 11
1043.723309964505
 21
422.5438460184606
 31
0.0
  0
LINE
  5
88D
330
A92
100
AcDbEntity
  8
1外形線
100
AcDbLine
 10
989.723309964506
 20
390.5438460184606
 30
0.0
 11
1060.97583254505
 21
390.543846018461
 31
0.0
  0
LINE
  5
88E
330
A92
100
AcDbEntity
  8
1外形線
100
AcDbLine
 10
1049.381495819206
 20
402.5780569781944
 30
0.0
 11
1061.618620154736
 21
392.3098904615805
 31
0.0
  0
LINE
  5
88F
330
A92
100
AcDbEntity
  8
1外形線
100
AcDbLine
 10
1047.850710162724
 20
402.5780569781944
 30
0.0
 11
1061.752082412031
 21
390.9134206509428
 31
0.0
  0
LINE
  5
890
330
A92
100
AcDbEntity
  8
1外形線
100
AcDbLine
 10
1041.398084281785
 20
402.5780569781944
 30
0.0
 11
1055.739898427084
 21
390.543846018461
 31
0.0
  0
LINE
  5
891
330
A92
100
AcDbEntity
  8
1外形線
100
AcDbLine
 10
1033.078035249376
 20
402.5780569781944
 30
0.0
 11
1047.419849394674
 21
390.543846018461
 31
0.0
  0
LINE
  5
892
330
A92
100
AcDbEntity
  8
1外形線
100
AcDbLine
 10
1059.723309964506
 20
360.5438460184609
 30
0.0
 11
1059.723309964506
 21
390.543846018461
 31
0.0
  0
ARC
  5
893
330
A92
100
AcDbEntity
  8
1外形線
100
AcDbCircle
 10
1060.975832545049
 20
391.5438460184616
 30
0.0
 40
1.0
100
AcDbArc
 50
270.0000000000196
 51
49.99999999996231
  0
ARC
  5
894
330
A92
100
AcDbEntity
  8
1外形線
100
AcDbCircle
 10
1043.723309964505
 20
421.5438460184606
 30
0.0
 40
1.0
100
AcDbArc
 50
0.0
 51
90.0
  0
ARC
  5
895
330
A92
100
AcDbEntity
  8
1外形線
100
AcDbCircle
 10
1051.039898427085
 20
414.0687236249794
 30
0.0
 40
15.0
100
AcDbArc
 50
180.0
 51
230.0000000000001
  0
LINE
  5
896
330
A92
100
AcDbEntity
  8
1外形線
100
AcDbLine
 10
1027.719849394674
 20
416.5438460184604
 30
0.0
 11
1027.719849394674
 21
414.0687236249798
 31
0.0
  0
LINE
  5
897
330
A92
100
AcDbEntity
  8
1外形線
100
AcDbLine
 10
1036.039898427084
 20
416.5438460184605
 30
0.0
 11
1036.039898427084
 21
414.0687236249799
 31
0.0
  0
ARC
  5
898
330
A92
100
AcDbEntity
  8
1外形線
100
AcDbCircle
 10
1042.719849394674
 20
414.0687236249794
 30
0.0
 40
15.0
100
AcDbArc
 50
180.0
 51
230.0000000000001
  0
LINE
  5
899
330
A92
100
AcDbEntity
  8
1外形線
100
AcDbLine
 10
1042.492524308023
 20
416.5438460184608
 30
0.0
 11
1042.492524308023
 21
414.0687236249799
 31
0.0
  0
LINE
  5
89A
330
A92
100
AcDbEntity
  8
1外形線
  6
Continuous
100
AcDbLine
 10
1044.723309964505
 20
421.5438460184606
 30
0.0
 11
1044.723309964505
 21
417.0438460184606
 31
0.0
  0
ARC
  5
89B
330
A92
100
AcDbEntity
  8
1外形線
100
AcDbCircle
 10
1044.223309964505
 20
417.0438460184606
 30
0.0
 40
0.5
100
AcDbArc
 50
270.0
 51
0.0
  0
LINE
  5
89C
330
A92
100
AcDbEntity
  8
1外形線
  6
Continuous
100
AcDbLine
 10
1044.023309964505
 20
416.5438460184605
 30
0.0
 11
1044.023309964505
 21
414.0687236249799
 31
0.0
  0
ARC
  5
89D
330
A92
100
AcDbEntity
  8
1外形線
100
AcDbCircle
 10
1059.023309964505
 20
414.0687236249798
 30
0.0
 40
15.0
100
AcDbArc
 50
180.0
 51
230.0000000000001
  0
ARC
  5
89E
330
A92
100
AcDbEntity
  8
1外形線
100
AcDbCircle
 10
1057.492524308023
 20
414.0687236249794
 30
0.0
 40
15.0
100
AcDbArc
 50
180.0
 51
230.0000000000001
  0
LINE
  5
89F
330
A92
100
AcDbEntity
  8
1外形線
100
AcDbLine
 10
1092.286481768475
 20
780.9767283215699
 30
0.0
 11
1083.436025449377
 21
791.3316865403701
 31
0.0
  0
LINE
  5
8A0
330
A92
100
AcDbEntity
  8
1外形線
100
AcDbLine
 10
1092.286481768475
 20
788.9251003676966
 30
0.0
 11
1083.436025449377
 21
799.280058586497
 31
0.0
  0
LINE
  5
8A1
330
A92
100
AcDbEntity
  8
1外形線
100
AcDbLine
 10
1092.286481768475
 20
794.2360327751535
 30
0.0
 11
1083.715517490032
 21
804.2639876961427
 31
0.0
  0
ARC
  5
8A2
330
A92
100
AcDbEntity
  8
1外形線
100
AcDbCircle
 10
1084.436025449377
 20
803.5705410287473
 30
0.0
 40
1.0
100
AcDbArc
 50
40.52074635305616
 51
180.0
  0
LINE
  5
8A3
330
A92
100
AcDbEntity
  8
1外形線
100
AcDbLine
 10
1096.206275548356
 20
736.1114026042957
 30
0.0
 11
1083.436025449377
 21
737.0878462459147
 31
0.0
  0
LINE
  5
8A4
330
A92
100
AcDbEntity
  8
1外形線
100
AcDbLine
 10
1096.545155430478
 20
731.4143180704443
 30
0.0
 11
1083.436025449377
 21
731.8202683887234
 31
0.0
  0
LINE
  5
8A5
330
A92
100
AcDbEntity
  8
1外形線
100
AcDbLine
 10
1095.709807456229
 20
743.197145841174
 30
0.0
 11
1083.436025449377
 21
744.9713336222762
 31
0.0
  0
LINE
  5
8A6
330
A92
100
AcDbEntity
  8
1外形線
100
AcDbLine
 10
1110.436025449377
 20
765.2705410287481
 30
0.0
 11
1083.436025449377
 21
773.270541028748
 31
0.0
  0
LINE
  5
8A7
330
A92
100
AcDbEntity
  8
1外形線
100
AcDbLine
 10
1110.436025449377
 20
762.2705410287481
 30
0.0
 11
1083.436025449377
 21
770.2705410287481
 31
0.0
  0
LINE
  5
8A8
330
A92
100
AcDbEntity
  8
1外形線
100
AcDbLine
 10
1116.436025449377
 20
730.270541028748
 30
0.0
 11
1083.436025449377
 21
730.270541028748
 31
0.0
  0
LINE
  5
8A9
330
A92
100
AcDbEntity
  8
1外形線
100
AcDbLine
 10
1110.436025449377
 20
759.270541028748
 30
0.0
 11
1083.436025449377
 21
767.270541028748
 31
0.0
  0
LINE
  5
8AA
330
A92
100
AcDbEntity
  8
1外形線
100
AcDbLine
 10
1021.023309964506
 20
771.3804014616584
 30
0.0
 11
1023.023309964506
 21
768.3804014616584
 31
0.0
  0
LINE
  5
8AB
330
A92
100
AcDbEntity
  8
1外形線
100
AcDbLine
 10
1019.723309964506
 20
755.3804014616584
 30
0.0
 11
1019.723309964506
 21
777.270528406427
 31
0.0
  0
LINE
  5
8AC
330
A92
100
AcDbEntity
  8
1外形線
100
AcDbLine
 10
1015.923309964506
 20
747.0882364850072
 30
0.0
 11
1015.923309964506
 21
786.1901696548179
 31
0.0
  0
LINE
  5
8AD
330
A92
100
AcDbEntity
  8
1外形線
100
AcDbLine
 10
1083.436025449377
 20
730.270541028748
 30
0.0
 11
1083.436025449377
 21
803.5705410287473
 31
0.0
  0
LINE
  5
8AE
330
A92
100
AcDbEntity
  8
1外形線
100
AcDbLine
 10
1053.436025449377
 20
732.2705410287478
 30
0.0
 11
1053.436025449377
 21
802.2705410287477
 31
0.0
  0
ARC
  5
8AF
330
A92
100
AcDbEntity
  8
1外形線
100
AcDbCircle
 10
998.7233099645063
 20
755.6804014616582
 30
0.0
 40
24.29999999999984
100
AcDbArc
 50
270.0
 51
0.0
  0
ARC
  5
8B0
330
A92
100
AcDbEntity
  8
1外形線
100
AcDbCircle
 10
997.7233099645061
 20
755.3804014616584
 30
0.0
 40
22.0
100
AcDbArc
 50
270.0
 51
0.0
  0
LINE
  5
8B1
330
A92
100
AcDbEntity
  8
1外形線
100
AcDbLine
 10
969.7233099645062
 20
731.3804014616585
 30
0.0
 11
998.7233099645063
 21
731.3804014616585
 31
0.0
  0
LINE
  5
8B2
330
A92
100
AcDbEntity
  8
1外形線
100
AcDbLine
 10
997.7233099645061
 20
735.3804014616585
 30
0.0
 11
969.7233099645062
 21
735.3804014616585
 31
0.0
  0
LINE
  5
8B3
330
A92
100
AcDbEntity
  8
1外形線
100
AcDbLine
 10
969.7233099645059
 20
733.3804014616585
 30
0.0
 11
997.7233099645061
 21
733.3804014616585
 31
0.0
  0
ARC
  5
8B4
330
A92
100
AcDbEntity
  8
1外形線
100
AcDbCircle
 10
997.7233099645061
 20
755.3804014616584
 30
0.0
 40
20.0
100
AcDbArc
 50
270.0
 51
335.5053515285799
  0
LINE
  5
8B5
330
A92
100
AcDbEntity
  8
1外形線
100
AcDbLine
 10
1023.023309964506
 20
768.3804014616587
 30
0.0
 11
1023.023309964506
 21
755.6804014616582
 31
0.0
  0
LINE
  5
8B6
330
A92
100
AcDbEntity
  8
1外形線
100
AcDbLine
 10
1083.436025449377
 20
732.2705410287478
 30
0.0
 11
1053.436025449377
 21
732.2705410287478
 31
0.0
  0
ARC
  5
8B7
330
A92
100
AcDbEntity
  8
1外形線
100
AcDbCircle
 10
995.7233099645058
 20
777.2705653396051
 30
0.0
 40
27.3
100
AcDbArc
 50
0.0
 51
90.00005357346905
  0
ARC
  5
8B8
330
A92
100
AcDbEntity
  8
1外形線
100
AcDbCircle
 10
994.7233099645062
 20
777.270528406427
 30
0.0
 40
25.0
100
AcDbArc
 50
0.0
 51
90.0
  0
LINE
  5
8B9
330
A92
100
AcDbEntity
  8
1外形線
100
AcDbLine
 10
994.7815546658251
 20
800.2713766976341
 30
0.0
 11
969.7233099645059
 21
800.2705284064271
 31
0.0
  0
LINE
  5
8BA
330
A92
100
AcDbEntity
  8
1外形線
100
AcDbLine
 10
995.7232844380927
 20
804.5705653395932
 30
0.0
 11
969.7233099645062
 21
804.5705410287476
 31
0.0
  0
LINE
  5
8BB
330
A92
100
AcDbEntity
  8
1外形線
100
AcDbLine
 10
994.7233099645059
 20
802.270528406427
 30
0.0
 11
969.7233099645059
 21
802.270528406427
 31
0.0
  0
ARC
  5
8BC
330
A92
100
AcDbEntity
  8
1外形線
100
AcDbCircle
 10
994.7233099645062
 20
777.270528406427
 30
0.0
 40
23.0
100
AcDbArc
 50
22.81833006483894
 51
90.0
  0
ARC
  5
8BD
330
A92
100
AcDbEntity
  8
1外形線
100
AcDbCircle
 10
1014.562930354478
 20
771.8804014616584
 30
0.0
 40
0.5
100
AcDbArc
 50
270.0
 51
341.5650511770721
  0
ARC
  5
8BE
330
A92
100
AcDbEntity
  8
1外形線
100
AcDbCircle
 10
1016.923309964506
 20
775.3804014616584
 30
0.0
 40
1.0
100
AcDbArc
 50
0.0
 51
90.0
  0
LINE
  5
8BF
330
A92
100
AcDbEntity
  8
1外形線
100
AcDbLine
 10
1016.923309964506
 20
776.3804014616584
 30
0.0
 11
1015.923309964506
 21
776.3804014616584
 31
0.0
  0
LINE
  5
8C0
330
A92
100
AcDbEntity
  8
1外形線
100
AcDbLine
 10
1015.037272003503
 20
771.7222875786501
 30
0.0
 11
1015.923309964506
 21
774.3804014616585
 31
0.0
  0
LINE
  5
8C1
330
A92
100
AcDbEntity
  8
1外形線
100
AcDbLine
 10
1017.923309964506
 20
771.3804014616584
 30
0.0
 11
1017.923309964506
 21
775.3804014616584
 31
0.0
  0
ARC
  5
8C2
330
A92
100
AcDbEntity
  8
1外形線
100
AcDbCircle
 10
1013.923309964506
 20
771.8804014616584
 30
0.0
 40
0.5
100
AcDbArc
 50
180.0
 51
270.0
  0
LINE
  5
8C3
330
A92
100
AcDbEntity
  8
1外形線
100
AcDbLine
 10
1014.562930354478
 20
771.3804014616584
 30
0.0
 11
1013.923309964506
 21
771.3804014616584
 31
0.0
  0
LINE
  5
8C4
330
A92
100
AcDbEntity
  8
1外形線
100
AcDbLine
 10
1021.023309964506
 20
771.3804014616584
 30
0.0
 11
1023.017222809778
 21
774.3712707295665
 31
0.0
  0
LINE
  5
8C5
330
A92
100
AcDbEntity
  8
1外形線
100
AcDbLine
 10
1019.723309964506
 20
776.3804014616584
 30
0.0
 11
1021.023309964506
 21
776.3804014616584
 31
0.0
  0
LINE
  5
8C6
330
A92
100
AcDbEntity
  8
1外形線
100
AcDbLine
 10
1021.023309964506
 20
776.3804014616584
 30
0.0
 11
1021.023309964506
 21
771.3804014616584
 31
0.0
  0
LINE
  5
8C7
330
A92
100
AcDbEntity
  8
1外形線
100
AcDbLine
 10
1023.023309964506
 20
777.2705653396051
 30
0.0
 11
1023.017222809778
 21
774.3712707295665
 31
0.0
  0
LINE
  5
8C8
330
A92
100
AcDbEntity
  8
1外形線
100
AcDbLine
 10
1019.723309964506
 20
771.3804014616584
 30
0.0
 11
1017.923309964506
 21
771.3804014616584
 31
0.0
  0
LINE
  5
8C9
330
A92
100
AcDbEntity
  8
1外形線
  6
Continuous
100
AcDbLine
 10
1013.423309964506
 20
771.8804014616584
 30
0.0
 11
1013.423309964506
 21
790.6611967990052
 31
0.0
  0
LINE
  5
8CA
330
A92
100
AcDbEntity
  8
1外形線
100
AcDbLine
 10
969.7233099645059
 20
837.2575850850969
 30
0.0
 11
1019.749273617347
 21
837.2575850850964
 31
0.0
  0
LINE
  5
8CB
330
A92
100
AcDbEntity
  8
1外形線
100
AcDbLine
 10
969.7233099645059
 20
867.2575850850966
 30
0.0
 11
1022.017222809778
 21
867.2575850850966
 31
0.0
  0
LINE
  5
8CC
330
A92
100
AcDbEntity
  8
1外形線
100
AcDbLine
 10
1019.749273617347
 20
837.2575850850964
 30
0.0
 11
1019.749273617347
 21
867.2575850850966
 31
0.0
  0
LINE
  5
8CD
330
A92
100
AcDbEntity
  8
1外形線
100
AcDbLine
 10
994.3970064243826
 20
877.0071550400301
 30
0.0
 11
1009.015421802467
 21
867.2575850850966
 31
0.0
  0
LINE
  5
8CE
330
A92
100
AcDbEntity
  8
1外形線
100
AcDbLine
 10
1002.717055456793
 20
877.0071550400301
 30
0.0
 11
1017.335470834878
 21
867.2575850850966
 31
0.0
  0
ARC
  5
8CF
330
A92
100
AcDbEntity
  8
1外形線
100
AcDbCircle
 10
1022.017222809778
 20
868.2575850850966
 30
0.0
 40
1.0
100
AcDbArc
 50
270.0
 51
56.29918936966515
  0
LINE
  5
8D0
330
A92
100
AcDbEntity
  8
1外形線
100
AcDbLine
 10
1009.169681337731
 20
877.0071550400304
 30
0.0
 11
1022.923256489738
 21
867.8343794958395
 31
0.0
  0
LINE
  5
8D1
330
A92
100
AcDbEntity
  8
1外形線
100
AcDbLine
 10
1010.700466994213
 20
877.0071550400301
 30
0.0
 11
1022.572079007797
 21
869.0895313571116
 31
0.0
  0
LINE
  5
8D2
330
A92
100
AcDbEntity
  8
1外形線
100
AcDbLine
 10
1083.436025449377
 20
802.2705410287477
 30
0.0
 11
1053.436025449377
 21
802.2705410287477
 31
0.0
  0
LINE
  5
8D3
330
A92
100
AcDbEntity
  8
1外形線
100
AcDbLine
 10
1053.436025449377
 20
770.2705410287481
 30
0.0
 11
1083.436025449377
 21
770.2705410287481
 31
0.0
  0
LINE
  5
8D4
330
A92
100
AcDbEntity
  8
1外形線
100
AcDbLine
 10
1053.436025449377
 20
802.2705410287477
 30
0.0
 11
1083.436025449377
 21
802.2705410287477
 31
0.0
  0
LINE
  5
8D5
330
A92
100
AcDbEntity
  8
1外形線
100
AcDbLine
 10
1110.436025449377
 20
791.2705410287481
 30
0.0
 11
1110.436025449377
 21
765.2705410287481
 31
0.0
  0
LINE
  5
8D6
330
A92
100
AcDbEntity
  8
1外形線
100
AcDbLine
 10
1116.436025449377
 20
730.270541028748
 30
0.0
 11
1116.436025449377
 21
791.2705410287481
 31
0.0
  0
LINE
  5
8D7
330
A92
100
AcDbEntity
  8
1外形線
100
AcDbLine
 10
1110.436025449377
 20
759.270541028748
 30
0.0
 11
1116.436025449377
 21
759.270541028748
 31
0.0
  0
LINE
  5
8D8
330
A92
100
AcDbEntity
  8
1外形線
100
AcDbLine
 10
1110.436025449377
 20
762.2705410287481
 30
0.0
 11
1116.436025449377
 21
762.2705410287481
 31
0.0
  0
LINE
  5
8D9
330
A92
100
AcDbEntity
  8
1外形線
100
AcDbLine
 10
1116.436025449377
 20
765.2705410287481
 30
0.0
 11
1110.436025449377
 21
765.2705410287481
 31
0.0
  0
LINE
  5
8DA
330
A92
100
AcDbEntity
  8
1外形線
100
AcDbLine
 10
1110.436025449377
 20
759.270541028748
 30
0.0
 11
1110.436025449377
 21
730.270541028748
 31
0.0
  0
LINE
  5
8DB
330
A92
100
AcDbEntity
  8
1外形線
100
AcDbLine
 10
1110.436025449377
 20
736.0677452332354
 30
0.0
 11
1097.349873015023
 21
736.0677452332354
 31
0.0
  0
LINE
  5
8DC
330
A92
100
AcDbEntity
  8
1外形線
100
AcDbLine
 10
1110.436025449377
 20
731.4071310797544
 30
0.0
 11
1097.009437745307
 21
731.4071310797544
 31
0.0
  0
ARC
  5
8DD
330
A92
100
AcDbEntity
  8
1外形線
100
AcDbCircle
 10
1097.349873015023
 20
751.0677452332354
 30
0.0
 40
15.0
100
AcDbArc
 50
265.6275366171859
 51
270.0
  0
ARC
  5
8DE
330
A92
100
AcDbEntity
  8
1外形線
100
AcDbCircle
 10
1097.009437745307
 20
746.4071310797546
 30
0.0
 40
15.0
100
AcDbArc
 50
268.226288900459
 51
270.0
  0
LINE
  5
8DF
330
A92
100
AcDbEntity
  8
1外形線
100
AcDbLine
 10
1110.436025449377
 20
743.0428472328983
 30
0.0
 11
1097.855768823017
 21
743.0428472328981
 31
0.0
  0
ARC
  5
8E0
330
A92
100
AcDbEntity
  8
1外形線
100
AcDbCircle
 10
1097.855768823017
 20
758.0428472328981
 30
0.0
 40
15.0
100
AcDbArc
 50
261.77480897893
 51
270.0
  0
LINE
  5
8E1
330
A92
100
AcDbEntity
  8
1外形線
100
AcDbLine
 10
1115.436025449376
 20
792.270541028748
 30
0.0
 11
1111.436025449377
 21
792.270541028748
 31
0.0
  0
LINE
  5
8E2
330
A92
100
AcDbEntity
  8
1外形線
100
AcDbLine
 10
1092.286481768475
 20
795.9246908868301
 30
0.0
 11
1085.196196205081
 21
804.2202643715418
 31
0.0
  0
ARC
  5
8E3
330
A92
100
AcDbEntity
  8
1外形線
100
AcDbCircle
 10
1103.689043104039
 20
790.7225784634873
 30
0.0
 40
15.0
100
AcDbArc
 50
220.5207463530562
 51
270.0
  0
ARC
  5
8E4
330
A92
100
AcDbEntity
  8
1外形線
100
AcDbCircle
 10
1103.689043104039
 20
798.6709505096142
 30
0.0
 40
15.0
100
AcDbArc
 50
220.5207463530562
 51
270.0
  0
ARC
  5
8E5
330
A92
100
AcDbEntity
  8
1外形線
100
AcDbCircle
 10
1103.689043104039
 20
803.9818829170712
 30
0.0
 40
15.0
100
AcDbArc
 50
220.5207463530562
 51
270.0
  0
ARC
  5
8E6
330
A92
100
AcDbEntity
  8
1外形線
100
AcDbCircle
 10
1103.689043104039
 20
805.6705410287481
 30
0.0
 40
15.0
100
AcDbArc
 50
220.5207463530562
 51
270.0
  0
ARC
  5
8E7
330
A92
100
AcDbEntity
  8
1外形線
100
AcDbCircle
 10
1111.436025449377
 20
791.2705410287481
 30
0.0
 40
1.0
100
AcDbArc
 50
90.0
 51
180.0
  0
LINE
  5
8E8
330
A92
100
AcDbEntity
  8
1外形線
100
AcDbLine
 10
1110.436025449377
 20
775.7225784634872
 30
0.0
 11
1103.689043104039
 21
775.7225784634872
 31
0.0
  0
LINE
  5
8E9
330
A92
100
AcDbEntity
  8
1外形線
100
AcDbLine
 10
1110.436025449377
 20
783.6709505096139
 30
0.0
 11
1103.689043104039
 21
783.6709505096141
 31
0.0
  0
LINE
  5
8EA
330
A92
100
AcDbEntity
  8
1外形線
100
AcDbLine
 10
1103.689043104039
 20
790.6705410287481
 30
0.0
 11
1110.436025449377
 21
790.6705410287481
 31
0.0
  0
LINE
  5
8EB
330
A92
100
AcDbEntity
  8
1外形線
100
AcDbLine
 10
1110.436025449377
 20
788.9818829170713
 30
0.0
 11
1103.689043104039
 21
788.9818829170713
 31
0.0
  0
ARC
  5
8EC
330
A92
100
AcDbEntity
  8
1外形線
100
AcDbCircle
 10
1115.436025449376
 20
791.2705410287481
 30
0.0
 40
1.0
100
AcDbArc
 50
0.0
 51
90.0
  0
LINE
  5
8ED
330
A92
100
AcDbEntity
  8
1外形線
100
AcDbLine
 10
1303.918540818139
 20
867.2575850850966
 30
0.0
 11
1356.212453663412
 21
867.2575850850966
 31
0.0
  0
LINE
  5
8EE
330
A92
100
AcDbEntity
  8
1外形線
100
AcDbLine
 10
1303.918540818139
 20
837.2575850850969
 30
0.0
 11
1353.944504470981
 21
837.2575850850964
 31
0.0
  0
ARC
  5
8EF
330
A92
100
AcDbEntity
  8
1外形線
100
AcDbCircle
 10
1328.918540818139
 20
777.270528406427
 30
0.0
 40
25.0
100
AcDbArc
 50
0.0
 51
90.0
  0
ARC
  5
8F0
330
A92
100
AcDbEntity
  8
1外形線
100
AcDbCircle
 10
1328.918540818139
 20
777.270528406427
 30
0.0
 40
23.0
100
AcDbArc
 50
22.81833006483894
 51
90.0
  0
LINE
  5
8F1
330
A92
100
AcDbEntity
  8
1外形線
100
AcDbLine
 10
1329.918515291726
 20
804.5705653395932
 30
0.0
 11
1303.918540818139
 21
804.5705410287476
 31
0.0
  0
LINE
  5
8F2
330
A92
100
AcDbEntity
  8
1外形線
100
AcDbLine
 10
1303.918540818139
 20
731.3804014616585
 30
0.0
 11
1332.91854081814
 21
731.3804014616585
 31
0.0
  0
LINE
  5
8F3
330
A92
100
AcDbEntity
  8
1外形線
100
AcDbLine
 10
1331.91854081814
 20
735.3804014616585
 30
0.0
 11
1303.918540818139
 21
735.3804014616585
 31
0.0
  0
LINE
  5
8F4
330
A92
100
AcDbEntity
  8
1外形線
100
AcDbLine
 10
1303.918540818139
 20
733.3804014616585
 30
0.0
 11
1331.91854081814
 21
733.3804014616585
 31
0.0
  0
LINE
  5
8F5
330
A92
100
AcDbEntity
  8
1外形線
100
AcDbLine
 10
1252.618540818139
 20
771.3804014616584
 30
0.0
 11
1250.618540818139
 21
768.3804014616584
 31
0.0
  0
LINE
  5
8F6
330
A92
100
AcDbEntity
  8
1外形線
100
AcDbLine
 10
1257.718540818139
 20
747.0882364850072
 30
0.0
 11
1257.718540818139
 21
786.1901696548179
 31
0.0
  0
LINE
  5
8F7
330
A92
100
AcDbEntity
  8
1外形線
100
AcDbLine
 10
1253.918540818139
 20
755.3804014616584
 30
0.0
 11
1253.918540818139
 21
777.270528406427
 31
0.0
  0
ARC
  5
8F8
330
A92
100
AcDbEntity
  8
1外形線
100
AcDbCircle
 10
1275.91854081814
 20
755.3804014616584
 30
0.0
 40
20.0
100
AcDbArc
 50
204.4946484714201
 51
270.0
  0
ARC
  5
8F9
330
A92
100
AcDbEntity
  8
1外形線
100
AcDbCircle
 10
1275.91854081814
 20
755.3804014616584
 30
0.0
 40
22.0
100
AcDbArc
 50
180.0
 51
270.0
  0
ARC
  5
8FA
330
A92
100
AcDbEntity
  8
1外形線
100
AcDbCircle
 10
1274.91854081814
 20
755.6804014616582
 30
0.0
 40
24.29999999999984
100
AcDbArc
 50
180.0
 51
270.0
  0
LINE
  5
8FB
330
A92
100
AcDbEntity
  8
1外形線
100
AcDbLine
 10
1250.61854081814
 20
768.3804014616587
 30
0.0
 11
1250.61854081814
 21
755.6804014616582
 31
0.0
  0
LINE
  5
8FC
330
A92
100
AcDbEntity
  8
1外形線
100
AcDbLine
 10
1303.918540818139
 20
733.3804014616585
 30
0.0
 11
1275.91854081814
 21
733.3804014616585
 31
0.0
  0
LINE
  5
8FD
330
A92
100
AcDbEntity
  8
1外形線
100
AcDbLine
 10
1275.91854081814
 20
735.3804014616585
 30
0.0
 11
1303.918540818139
 21
735.3804014616585
 31
0.0
  0
LINE
  5
8FE
330
A92
100
AcDbEntity
  8
1外形線
100
AcDbLine
 10
1303.918540818139
 20
731.3804014616585
 30
0.0
 11
1274.91854081814
 21
731.3804014616585
 31
0.0
  0
LINE
  5
8FF
330
A92
100
AcDbEntity
  8
1外形線
100
AcDbLine
 10
1303.918540818139
 20
837.2575850850969
 30
0.0
 11
1253.892577165298
 21
837.2575850850964
 31
0.0
  0
LINE
  5
900
330
A92
100
AcDbEntity
  8
1外形線
100
AcDbLine
 10
1303.918540818139
 20
867.2575850850966
 30
0.0
 11
1251.624627972867
 21
867.2575850850966
 31
0.0
  0
ARC
  5
901
330
A92
100
AcDbEntity
  8
1外形線
100
AcDbCircle
 10
1278.918540818139
 20
777.270528406427
 30
0.0
 40
23.0
100
AcDbArc
 50
90.0
 51
157.181669935161
  0
ARC
  5
902
330
A92
100
AcDbEntity
  8
1外形線
100
AcDbCircle
 10
1278.918540818139
 20
777.270528406427
 30
0.0
 40
25.0
100
AcDbArc
 50
90.0
 51
180.0
  0
ARC
  5
903
330
A92
100
AcDbEntity
  8
1外形線
100
AcDbCircle
 10
1277.918540818139
 20
777.2705653396051
 30
0.0
 40
27.3
100
AcDbArc
 50
89.99994642653094
 51
180.0
  0
LINE
  5
904
330
A92
100
AcDbEntity
  8
1外形線
100
AcDbLine
 10
1253.918540818139
 20
776.3804014616584
 30
0.0
 11
1252.618540818139
 21
776.3804014616584
 31
0.0
  0
LINE
  5
905
330
A92
100
AcDbEntity
  8
1外形線
100
AcDbLine
 10
1250.61854081814
 20
777.2705653396051
 30
0.0
 11
1250.624627972867
 21
774.3712707295665
 31
0.0
  0
LINE
  5
906
330
A92
100
AcDbEntity
  8
1外形線
100
AcDbLine
 10
1252.618540818139
 20
776.3804014616584
 30
0.0
 11
1252.618540818139
 21
771.3804014616584
 31
0.0
  0
LINE
  5
907
330
A92
100
AcDbEntity
  8
1外形線
100
AcDbLine
 10
1252.618540818139
 20
771.3804014616584
 30
0.0
 11
1250.624627972867
 21
774.3712707295665
 31
0.0
  0
LINE
  5
908
330
A92
100
AcDbEntity
  8
1外形線
100
AcDbLine
 10
1256.71854081814
 20
776.3804014616584
 30
0.0
 11
1257.718540818139
 21
776.3804014616584
 31
0.0
  0
ARC
  5
909
330
A92
100
AcDbEntity
  8
1外形線
100
AcDbCircle
 10
1256.71854081814
 20
775.3804014616584
 30
0.0
 40
1.0
100
AcDbArc
 50
90.0
 51
180.0
  0
LINE
  5
90A
330
A92
100
AcDbEntity
  8
1外形線
100
AcDbLine
 10
1259.078920428167
 20
771.3804014616584
 30
0.0
 11
1259.71854081814
 21
771.3804014616584
 31
0.0
  0
ARC
  5
90B
330
A92
100
AcDbEntity
  8
1外形線
100
AcDbCircle
 10
1259.71854081814
 20
771.8804014616584
 30
0.0
 40
0.5
100
AcDbArc
 50
270.0
 51
0.0
  0
ARC
  5
90C
330
A92
100
AcDbEntity
  8
1外形線
100
AcDbCircle
 10
1259.078920428167
 20
771.8804014616584
 30
0.0
 40
0.5
100
AcDbArc
 50
198.4349488229279
 51
270.0
  0
LINE
  5
90D
330
A92
100
AcDbEntity
  8
1外形線
100
AcDbLine
 10
1253.918540818139
 20
771.3804014616584
 30
0.0
 11
1255.718540818139
 21
771.3804014616584
 31
0.0
  0
LINE
  5
90E
330
A92
100
AcDbEntity
  8
1外形線
  6
Continuous
100
AcDbLine
 10
1260.21854081814
 20
771.8804014616584
 30
0.0
 11
1260.218540818139
 21
790.6611967990052
 31
0.0
  0
LINE
  5
90F
330
A92
100
AcDbEntity
  8
1外形線
100
AcDbLine
 10
1255.71854081814
 20
771.3804014616584
 30
0.0
 11
1255.71854081814
 21
775.3804014616584
 31
0.0
  0
LINE
  5
910
330
A92
100
AcDbEntity
  8
1外形線
100
AcDbLine
 10
1258.604578779142
 20
771.7222875786501
 30
0.0
 11
1257.718540818139
 21
774.3804014616585
 31
0.0
  0
LINE
  5
911
330
A92
100
AcDbEntity
  8
1外形線
100
AcDbLine
 10
1253.892577165298
 20
837.2575850850964
 30
0.0
 11
1253.892577165298
 21
867.2575850850966
 31
0.0
  0
ARC
  5
912
330
A92
100
AcDbEntity
  8
1外形線
100
AcDbCircle
 10
1251.624627972867
 20
868.2575850850966
 30
0.0
 40
1.0
100
AcDbArc
 50
150.0000000000005
 51
270.0
  0
LINE
  5
913
330
A92
100
AcDbEntity
  8
1外形線
100
AcDbLine
 10
1278.918540818139
 20
802.270528406427
 30
0.0
 11
1303.918540818139
 21
802.270528406427
 31
0.0
  0
LINE
  5
914
330
A92
100
AcDbEntity
  8
1外形線
100
AcDbLine
 10
1277.918566344553
 20
804.5705653395932
 30
0.0
 11
1303.918540818139
 21
804.5705410287476
 31
0.0
  0
LINE
  5
915
330
A92
100
AcDbEntity
  8
1外形線
100
AcDbLine
 10
1278.86029611682
 20
800.2713766976341
 30
0.0
 11
1303.918540818139
 21
800.2705284064271
 31
0.0
  0
LINE
  5
916
330
A92
100
AcDbEntity
  8
1外形線
100
AcDbLine
 10
1328.976785519459
 20
800.2713766976341
 30
0.0
 11
1303.918540818139
 21
800.2705284064271
 31
0.0
  0
LINE
  5
917
330
A92
100
AcDbEntity
  8
1外形線
100
AcDbLine
 10
1328.918540818139
 20
802.270528406427
 30
0.0
 11
1303.918540818139
 21
802.270528406427
 31
0.0
  0
LINE
  5
918
330
A92
100
AcDbEntity
  8
1外形線
100
AcDbLine
 10
1444.63125630301
 20
796.2705410287481
 30
0.0
 11
1444.63125630301
 21
765.2705410287481
 31
0.0
  0
LINE
  5
919
330
A92
100
AcDbEntity
  8
1外形線
100
AcDbLine
 10
1450.63125630301
 20
730.270541028748
 30
0.0
 11
1450.63125630301
 21
796.2705410287481
 31
0.0
  0
LINE
  5
91A
330
A92
100
AcDbEntity
  8
1外形線
100
AcDbLine
 10
1417.63125630301
 20
730.270541028748
 30
0.0
 11
1417.63125630301
 21
803.5705410287473
 31
0.0
  0
LINE
  5
91B
330
A92
100
AcDbEntity
  8
1外形線
100
AcDbLine
 10
1387.63125630301
 20
732.2705410287478
 30
0.0
 11
1387.63125630301
 21
802.2705410287477
 31
0.0
  0
LINE
  5
91C
330
A92
100
AcDbEntity
  8
1外形線
100
AcDbLine
 10
1355.21854081814
 20
771.3804014616584
 30
0.0
 11
1357.21854081814
 21
768.3804014616584
 31
0.0
  0
LINE
  5
91D
330
A92
100
AcDbEntity
  8
1外形線
100
AcDbLine
 10
1353.91854081814
 20
755.3804014616584
 30
0.0
 11
1353.91854081814
 21
777.270528406427
 31
0.0
  0
LINE
  5
91E
330
A92
100
AcDbEntity
  8
1外形線
100
AcDbLine
 10
1350.118540818139
 20
747.0882364850072
 30
0.0
 11
1350.118540818139
 21
786.1901696548179
 31
0.0
  0
LINE
  5
91F
330
A92
100
AcDbEntity
  8
1外形線
100
AcDbLine
 10
1444.63125630301
 20
762.2705410287481
 30
0.0
 11
1417.63125630301
 21
770.2705410287481
 31
0.0
  0
LINE
  5
920
330
A92
100
AcDbEntity
  8
1外形線
100
AcDbLine
 10
1444.63125630301
 20
765.2705410287481
 30
0.0
 11
1417.63125630301
 21
773.270541028748
 31
0.0
  0
LINE
  5
921
330
A92
100
AcDbEntity
  8
1外形線
100
AcDbLine
 10
1417.63125630301
 20
732.2705410287478
 30
0.0
 11
1387.63125630301
 21
732.2705410287478
 31
0.0
  0
ARC
  5
922
330
A92
100
AcDbEntity
  8
1外形線
100
AcDbCircle
 10
1332.91854081814
 20
755.6804014616582
 30
0.0
 40
24.29999999999984
100
AcDbArc
 50
270.0
 51
0.0
  0
ARC
  5
923
330
A92
100
AcDbEntity
  8
1外形線
100
AcDbCircle
 10
1331.91854081814
 20
755.3804014616584
 30
0.0
 40
22.0
100
AcDbArc
 50
270.0
 51
0.0
  0
ARC
  5
924
330
A92
100
AcDbEntity
  8
1外形線
100
AcDbCircle
 10
1331.91854081814
 20
755.3804014616584
 30
0.0
 40
20.0
100
AcDbArc
 50
270.0
 51
335.5053515285799
  0
LINE
  5
925
330
A92
100
AcDbEntity
  8
1外形線
100
AcDbLine
 10
1357.218540818139
 20
768.3804014616587
 30
0.0
 11
1357.218540818139
 21
755.6804014616582
 31
0.0
  0
LINE
  5
926
330
A92
100
AcDbEntity
  8
1外形線
100
AcDbLine
 10
1430.740386284111
 20
731.4143180704443
 30
0.0
 11
1417.63125630301
 21
731.8202683887234
 31
0.0
  0
LINE
  5
927
330
A92
100
AcDbEntity
  8
1外形線
100
AcDbLine
 10
1429.905038309861
 20
743.197145841174
 30
0.0
 11
1417.63125630301
 21
744.9713336222762
 31
0.0
  0
LINE
  5
928
330
A92
100
AcDbEntity
  8
1外形線
100
AcDbLine
 10
1430.40150640199
 20
736.1114026042957
 30
0.0
 11
1417.63125630301
 21
737.0878462459147
 31
0.0
  0
LINE
  5
929
330
A92
100
AcDbEntity
  8
1外形線
100
AcDbLine
 10
1444.63125630301
 20
759.270541028748
 30
0.0
 11
1417.63125630301
 21
767.270541028748
 31
0.0
  0
LINE
  5
92A
330
A92
100
AcDbEntity
  8
1外形線
100
AcDbLine
 10
1450.63125630301
 20
730.270541028748
 30
0.0
 11
1417.63125630301
 21
730.270541028748
 31
0.0
  0
LINE
  5
92B
330
A92
100
AcDbEntity
  8
1外形線
100
AcDbLine
 10
1444.63125630301
 20
759.270541028748
 30
0.0
 11
1444.63125630301
 21
730.270541028748
 31
0.0
  0
LINE
  5
92C
330
A92
100
AcDbEntity
  8
1外形線
100
AcDbLine
 10
1444.63125630301
 20
736.0677452332354
 30
0.0
 11
1431.545103868657
 21
736.0677452332354
 31
0.0
  0
LINE
  5
92D
330
A92
100
AcDbEntity
  8
1外形線
100
AcDbLine
 10
1444.63125630301
 20
731.4071310797544
 30
0.0
 11
1431.20466859894
 21
731.4071310797544
 31
0.0
  0
ARC
  5
92E
330
A92
100
AcDbEntity
  8
1外形線
100
AcDbCircle
 10
1431.20466859894
 20
746.4071310797546
 30
0.0
 40
15.0
100
AcDbArc
 50
268.226288900459
 51
270.0
  0
ARC
  5
92F
330
A92
100
AcDbEntity
  8
1外形線
100
AcDbCircle
 10
1431.545103868657
 20
751.0677452332354
 30
0.0
 40
15.0
100
AcDbArc
 50
265.6275366171859
 51
270.0
  0
LINE
  5
930
330
A92
100
AcDbEntity
  8
1外形線
100
AcDbLine
 10
1444.63125630301
 20
743.0428472328983
 30
0.0
 11
1432.050999676651
 21
743.0428472328981
 31
0.0
  0
ARC
  5
931
330
A92
100
AcDbEntity
  8
1外形線
100
AcDbCircle
 10
1432.050999676651
 20
758.0428472328981
 30
0.0
 40
15.0
100
AcDbArc
 50
261.77480897893
 51
270.0
  0
LINE
  5
932
330
A92
100
AcDbEntity
  8
1外形線
100
AcDbLine
 10
1444.63125630301
 20
759.270541028748
 30
0.0
 11
1450.63125630301
 21
759.270541028748
 31
0.0
  0
LINE
  5
933
330
A92
100
AcDbEntity
  8
1外形線
100
AcDbLine
 10
1444.63125630301
 20
762.2705410287481
 30
0.0
 11
1450.63125630301
 21
762.2705410287481
 31
0.0
  0
LINE
  5
934
330
A92
100
AcDbEntity
  8
1外形線
100
AcDbLine
 10
1450.63125630301
 20
765.2705410287481
 30
0.0
 11
1444.63125630301
 21
765.2705410287481
 31
0.0
  0
LINE
  5
935
330
A92
100
AcDbEntity
  8
1外形線
100
AcDbLine
 10
1387.63125630301
 20
770.2705410287481
 30
0.0
 11
1417.63125630301
 21
770.2705410287481
 31
0.0
  0
LINE
  5
936
330
A92
100
AcDbEntity
  8
1外形線
100
AcDbLine
 10
1387.63125630301
 20
802.2705410287477
 30
0.0
 11
1417.63125630301
 21
802.2705410287477
 31
0.0
  0
LINE
  5
937
330
A92
100
AcDbEntity
  8
1外形線
100
AcDbLine
 10
1417.63125630301
 20
802.2705410287477
 30
0.0
 11
1387.63125630301
 21
802.2705410287477
 31
0.0
  0
ARC
  5
938
330
A92
100
AcDbEntity
  8
1外形線
100
AcDbCircle
 10
1329.918540818139
 20
777.2705653396051
 30
0.0
 40
27.3
100
AcDbArc
 50
0.0
 51
90.00005357346905
  0
LINE
  5
939
330
A92
100
AcDbEntity
  8
1外形線
100
AcDbLine
 10
1353.91854081814
 20
776.3804014616584
 30
0.0
 11
1355.21854081814
 21
776.3804014616584
 31
0.0
  0
LINE
  5
93A
330
A92
100
AcDbEntity
  8
1外形線
100
AcDbLine
 10
1357.218540818139
 20
777.2705653396051
 30
0.0
 11
1357.212453663411
 21
774.3712707295665
 31
0.0
  0
LINE
  5
93B
330
A92
100
AcDbEntity
  8
1外形線
100
AcDbLine
 10
1353.91854081814
 20
771.3804014616584
 30
0.0
 11
1352.118540818139
 21
771.3804014616584
 31
0.0
  0
LINE
  5
93C
330
A92
100
AcDbEntity
  8
1外形線
100
AcDbLine
 10
1352.118540818139
 20
771.3804014616584
 30
0.0
 11
1352.118540818139
 21
775.3804014616584
 31
0.0
  0
LINE
  5
93D
330
A92
100
AcDbEntity
  8
1外形線
100
AcDbLine
 10
1355.21854081814
 20
771.3804014616584
 30
0.0
 11
1357.212453663411
 21
774.3712707295665
 31
0.0
  0
LINE
  5
93E
330
A92
100
AcDbEntity
  8
1外形線
100
AcDbLine
 10
1355.21854081814
 20
776.3804014616584
 30
0.0
 11
1355.21854081814
 21
771.3804014616584
 31
0.0
  0
LINE
  5
93F
330
A92
100
AcDbEntity
  8
1外形線
100
AcDbLine
 10
1351.118540818139
 20
776.3804014616584
 30
0.0
 11
1350.118540818139
 21
776.3804014616584
 31
0.0
  0
ARC
  5
940
330
A92
100
AcDbEntity
  8
1外形線
100
AcDbCircle
 10
1348.758161208112
 20
771.8804014616584
 30
0.0
 40
0.5
100
AcDbArc
 50
270.0
 51
341.5650511770721
  0
ARC
  5
941
330
A92
100
AcDbEntity
  8
1外形線
100
AcDbCircle
 10
1348.118540818139
 20
771.8804014616584
 30
0.0
 40
0.5
100
AcDbArc
 50
180.0
 51
270.0
  0
LINE
  5
942
330
A92
100
AcDbEntity
  8
1外形線
100
AcDbLine
 10
1348.758161208112
 20
771.3804014616584
 30
0.0
 11
1348.118540818139
 21
771.3804014616584
 31
0.0
  0
LINE
  5
943
330
A92
100
AcDbEntity
  8
1外形線
  6
Continuous
100
AcDbLine
 10
1347.618540818139
 20
771.8804014616584
 30
0.0
 11
1347.61854081814
 21
790.6611967990052
 31
0.0
  0
LINE
  5
944
330
A92
100
AcDbEntity
  8
1外形線
100
AcDbLine
 10
1349.232502857137
 20
771.7222875786501
 30
0.0
 11
1350.118540818139
 21
774.3804014616585
 31
0.0
  0
ARC
  5
945
330
A92
100
AcDbEntity
  8
1外形線
100
AcDbCircle
 10
1351.118540818139
 20
775.3804014616584
 30
0.0
 40
1.0
100
AcDbArc
 50
0.0
 51
90.0
  0
LINE
  5
946
330
A92
100
AcDbEntity
  8
1外形線
100
AcDbLine
 10
1353.944504470981
 20
837.2575850850964
 30
0.0
 11
1353.944504470981
 21
867.2575850850966
 31
0.0
  0
ARC
  5
947
330
A92
100
AcDbEntity
  8
1外形線
100
AcDbCircle
 10
1356.212453663411
 20
868.2575850850966
 30
0.0
 40
1.0
100
AcDbArc
 50
270.0
 51
29.99999999999952
  0
LINE
  5
948
330
A92
100
AcDbEntity
  8
1外形線
100
AcDbLine
 10
1430.83369556927
 20
782.7321974067204
 30
0.0
 11
1417.63125630301
 21
790.354629271055
 31
0.0
  0
LINE
  5
949
330
A92
100
AcDbEntity
  8
1外形線
100
AcDbLine
 10
1430.83369556927
 20
790.6805694528473
 30
0.0
 11
1417.63125630301
 21
798.3030013171822
 31
0.0
  0
LINE
  5
94A
330
A92
100
AcDbEntity
  8
1外形線
100
AcDbLine
 10
1430.83369556927
 20
795.9915018603042
 30
0.0
 11
1417.63217530551
 21
803.6134031382985
 31
0.0
  0
LINE
  5
94B
330
A92
100
AcDbEntity
  8
1外形線
100
AcDbLine
 10
1430.83369556927
 20
797.6801599719817
 30
0.0
 11
1419.13125630301
 21
804.4365664325319
 31
0.0
  0
ARC
  5
94C
330
A92
100
AcDbEntity
  8
1外形線
100
AcDbCircle
 10
1418.63125630301
 20
803.5705410287473
 30
0.0
 40
1.0
100
AcDbArc
 50
60.00000000000203
 51
180.0
  0
ARC
  5
94D
330
A92
100
AcDbEntity
  8
1外形線
100
AcDbCircle
 10
1438.333695569269
 20
810.6705410287489
 30
0.0
 40
15.0
100
AcDbArc
 50
240.000000000002
 51
270.0
  0
ARC
  5
94E
330
A92
100
AcDbEntity
  8
1外形線
100
AcDbCircle
 10
1449.63125630301
 20
796.2705410287481
 30
0.0
 40
1.0
100
AcDbArc
 50
0.0
 51
90.0
  0
ARC
  5
94F
330
A92
100
AcDbEntity
  8
1外形線
100
AcDbCircle
 10
1445.63125630301
 20
796.2705410287481
 30
0.0
 40
1.0
100
AcDbArc
 50
90.0
 51
180.0
  0
ARC
  5
950
330
A92
100
AcDbEntity
  8
1外形線
100
AcDbCircle
 10
1438.333695569269
 20
795.7225784634872
 30
0.0
 40
15.0
100
AcDbArc
 50
240.000000000002
 51
270.0
  0
ARC
  5
951
330
A92
100
AcDbEntity
  8
1外形線
100
AcDbCircle
 10
1438.333695569269
 20
803.6709505096141
 30
0.0
 40
15.0
100
AcDbArc
 50
240.000000000002
 51
270.0
  0
ARC
  5
952
330
A92
100
AcDbEntity
  8
1外形線
100
AcDbCircle
 10
1438.333695569269
 20
808.9818829170715
 30
0.0
 40
15.0
100
AcDbArc
 50
240.000000000002
 51
270.0
  0
LINE
  5
953
330
A92
100
AcDbEntity
  8
1外形線
100
AcDbLine
 10
1444.63125630301
 20
780.7225784634872
 30
0.0
 11
1438.333695569269
 21
780.7225784634872
 31
0.0
  0
LINE
  5
954
330
A92
100
AcDbEntity
  8
1外形線
100
AcDbLine
 10
1444.63125630301
 20
788.6709505096139
 30
0.0
 11
1438.333695569269
 21
788.6709505096141
 31
0.0
  0
LINE
  5
955
330
A92
100
AcDbEntity
  8
1外形線
100
AcDbLine
 10
1444.63125630301
 20
793.9818829170713
 30
0.0
 11
1438.333695569269
 21
793.9818829170713
 31
0.0
  0
LINE
  5
956
330
A92
100
AcDbEntity
  8
1外形線
100
AcDbLine
 10
1438.333695569269
 20
795.6705410287481
 30
0.0
 11
1444.63125630301
 21
795.6705410287481
 31
0.0
  0
LINE
  5
957
330
A92
100
AcDbEntity
  8
1外形線
100
AcDbLine
 10
1449.63125630301
 20
797.270541028748
 30
0.0
 11
1445.63125630301
 21
797.270541028748
 31
0.0
  0
TEXT
  5
958
330
A92
100
AcDbEntity
  8
1外形線
100
AcDbText
 10
916.4233100968408
 20
963.4016618476575
 30
0.0
 40
10.0
  1
ST-100-66
  7
KANJI
100
AcDbText
  0
TEXT
  5
959
330
A92
100
AcDbEntity
  8
1外形線
100
AcDbText
 10
916.4233100968408
 20
1394.646889545514
 30
0.0
 40
10.0
  1
ST-77-66
  7
KANJI
100
AcDbText
  0
LINE
  5
95A
330
A92
100
AcDbEntity
  8
1外形線
100
AcDbLine
 10
935.2233099645061
 20
894.2575850850968
 30
0.0
 11
969.7233099645062
 21
894.2575850850968
 31
0.0
  0
LINE
  5
95B
330
A92
100
AcDbEntity
  8
1外形線
100
AcDbLine
 10
969.7233099645062
 20
900.2575850850966
 30
0.0
 11
935.7233099645062
 21
900.2575850850965
 31
0.0
  0
LINE
  5
95C
330
A92
100
AcDbEntity
  8
1外形線
100
AcDbLine
 10
957.2233099645055
 20
1292.765573960187
 30
0.0
 11
996.9912591569364
 21
1292.765573960187
 31
0.0
  0
LINE
  5
95D
330
A92
100
AcDbEntity
  8
1外形線
100
AcDbLine
 10
990.7233099645054
 20
1317.765573960187
 30
0.0
 11
957.2233099645055
 21
1317.765573960187
 31
0.0
  0
LINE
  5
95E
330
A92
100
AcDbEntity
  8
1外形線
100
AcDbLine
 10
957.2233099645055
 20
1323.765573960187
 30
0.0
 11
990.2233099645055
 21
1323.765573960187
 31
0.0
  0
LINE
  5
95F
330
A92
100
AcDbEntity
  8
1外形線
100
AcDbLine
 10
957.2233099645055
 20
1262.765573960187
 30
0.0
 11
994.7233099645055
 21
1262.765573960187
 31
0.0
  0
LINE
  5
960
330
A92
100
AcDbEntity
  8
1外形線
100
AcDbLine
 10
973.7233099645054
 20
1166.465573960187
 30
0.0
 11
940.7233099645056
 21
1166.465573960187
 31
0.0
  0
LINE
  5
961
330
A92
100
AcDbEntity
  8
1外形線
100
AcDbLine
 10
941.7233099645057
 20
1170.465573960187
 30
0.0
 11
972.7233099645054
 21
1170.465573960187
 31
0.0
  0
LINE
  5
962
330
A92
100
AcDbEntity
  8
1外形線
100
AcDbLine
 10
957.2233099645055
 20
1168.465573960187
 30
0.0
 11
972.7233099645054
 21
1168.465573960187
 31
0.0
  0
LINE
  5
963
330
A92
100
AcDbEntity
  8
1外形線
100
AcDbLine
 10
943.7239848790643
 20
1232.765573960186
 30
0.0
 11
970.7226350499642
 21
1232.765573960186
 31
0.0
  0
LINE
  5
964
330
A92
100
AcDbEntity
  8
1外形線
100
AcDbLine
 10
969.7233099645055
 20
1230.465573960187
 30
0.0
 11
957.2233099645055
 21
1230.465573960187
 31
0.0
  0
LINE
  5
965
330
A92
100
AcDbEntity
  8
1外形線
100
AcDbLine
 10
969.7233099645055
 20
1228.465573960187
 30
0.0
 11
957.2233099645055
 21
1228.465573960187
 31
0.0
  0
LINE
  5
966
330
A92
100
AcDbEntity
  8
1外形線
100
AcDbLine
 10
866.4233099645061
 20
1424.646888107854
 30
0.0
 11
866.4233099645061
 21
1023.401660409997
 31
0.0
  0
LINE
  5
967
330
A92
100
AcDbEntity
  8
1外形線
100
AcDbLine
 10
923.5233099645055
 20
1182.173408983536
 30
0.0
 11
923.5233099645055
 21
1215.959479662652
 31
0.0
  0
ARC
  5
968
330
A92
100
AcDbEntity
  8
1外形線
100
AcDbCircle
 10
940.7233099645056
 20
1190.765573960187
 30
0.0
 40
24.29999999999984
100
AcDbArc
 50
180.0
 51
270.0
  0
ARC
  5
969
330
A92
100
AcDbEntity
  8
1外形線
100
AcDbCircle
 10
941.7233099645057
 20
1190.465573960187
 30
0.0
 40
22.0
100
AcDbArc
 50
180.0
 51
270.0
  0
LINE
  5
96A
330
A92
100
AcDbEntity
  8
1外形線
  6
Continuous
100
AcDbLine
 10
934.7233099645061
 20
899.2575850850967
 30
0.0
 11
934.7233099645061
 21
894.7575850850967
 31
0.0
  0
ARC
  5
96B
330
A92
100
AcDbEntity
  8
1外形線
100
AcDbCircle
 10
935.2233099645061
 20
894.7575850850967
 30
0.0
 40
0.5
100
AcDbArc
 50
180.0
 51
270.0
  0
ARC
  5
96C
330
A92
100
AcDbEntity
  8
1外形線
100
AcDbCircle
 10
935.7233099645062
 20
899.2575850850967
 30
0.0
 40
1.0
100
AcDbArc
 50
90.0
 51
180.0
  0
LINE
  5
96D
330
A92
100
AcDbEntity
  8
1外形線
100
AcDbLine
 10
943.4067215019267
 20
894.2575850850968
 30
0.0
 11
943.4067215019267
 21
889.4863491202521
 31
0.0
  0
LINE
  5
96E
330
A92
100
AcDbEntity
  8
1外形線
100
AcDbLine
 10
936.9540956209883
 20
894.2575850850968
 30
0.0
 11
936.9540956209883
 21
889.4863491202521
 31
0.0
  0
LINE
  5
96F
330
A92
100
AcDbEntity
  8
1外形線
  6
Continuous
100
AcDbLine
 10
935.4233099645059
 20
894.2575850850968
 30
0.0
 11
935.4233099645059
 21
889.4863491202521
 31
0.0
  0
LINE
  5
970
330
A92
100
AcDbEntity
  8
1外形線
100
AcDbLine
 10
951.7267705343369
 20
894.2575850850968
 30
0.0
 11
951.7267705343369
 21
889.4863491202521
 31
0.0
  0
ARC
  5
971
330
A92
100
AcDbEntity
  8
1外形線
100
AcDbCircle
 10
941.7233099645057
 20
1190.465573960187
 30
0.0
 40
20.0
100
AcDbArc
 50
204.4946484714201
 51
270.0
  0
LINE
  5
972
330
A92
100
AcDbEntity
  8
1外形線
100
AcDbLine
 10
957.2233099645055
 20
1168.465573960187
 30
0.0
 11
941.7233099645057
 21
1168.465573960187
 31
0.0
  0
LINE
  5
973
330
A92
100
AcDbEntity
  8
1外形線
100
AcDbLine
 10
933.1882827152188
 20
1292.765573960187
 30
0.0
 11
938.6669105312252
 21
1303.820781870035
 31
0.0
  0
LINE
  5
974
330
A92
100
AcDbEntity
  8
1外形線
100
AcDbLine
 10
916.5893353682902
 20
1294.265573960186
 30
0.0
 11
921.913691021272
 21
1303.487628468718
 31
0.0
  0
LINE
  5
975
330
A92
100
AcDbEntity
  8
1外形線
100
AcDbLine
 10
918.2425384301945
 20
1292.765573960187
 30
0.0
 11
923.8287563918879
 21
1303.767362786338
 31
0.0
  0
LINE
  5
976
330
A92
100
AcDbEntity
  8
1外形線
100
AcDbLine
 10
924.2459725114921
 20
1292.765573960187
 30
0.0
 11
930.1087099687492
 21
1303.634926958532
 31
0.0
  0
ARC
  5
977
330
A92
100
AcDbEntity
  8
1外形線
100
AcDbCircle
 10
943.4363361144498
 20
1205.467051531527
 30
0.0
 40
27.29999999999984
100
AcDbArc
 50
89.41138035342167
 51
171.59718895961
  0
ARC
  5
978
330
A92
100
AcDbEntity
  8
1外形線
100
AcDbCircle
 10
943.995251198034
 20
1205.47617760028
 30
0.0
 40
23.0
100
AcDbArc
 50
88.33117626966338
 51
152.8838546459546
  0
ARC
  5
979
330
A92
100
AcDbEntity
  8
1外形線
100
AcDbCircle
 10
943.995251198034
 20
1205.47617760028
 30
0.0
 40
25.0
100
AcDbArc
 50
88.33117626966338
 51
166.1384916934799
  0
LINE
  5
97A
330
A92
100
AcDbEntity
  8
1外形線
  6
Continuous
100
AcDbLine
 10
926.0233099645059
 20
1206.965573960187
 30
0.0
 11
926.0233099645056
 21
1219.829202657688
 31
0.0
  0
LINE
  5
97B
330
A92
100
AcDbEntity
  8
1外形線
100
AcDbLine
 10
922.5233099645057
 20
1211.465573960187
 30
0.0
 11
923.5233099645055
 21
1211.465573960187
 31
0.0
  0
LINE
  5
97C
330
A92
100
AcDbEntity
  8
1外形線
100
AcDbLine
 10
919.7233099645057
 20
1211.465573960187
 30
0.0
 11
918.4233099645055
 21
1211.465573960187
 31
0.0
  0
ARC
  5
97D
330
A92
100
AcDbEntity
  8
1外形線
100
AcDbCircle
 10
922.5233099645057
 20
1210.465573960187
 30
0.0
 40
1.0
100
AcDbArc
 50
90.0
 51
180.0
  0
ARC
  5
97E
330
A92
100
AcDbEntity
  8
1外形線
100
AcDbCircle
 10
925.5233099645058
 20
1206.965573960187
 30
0.0
 40
0.5
100
AcDbArc
 50
270.0
 51
0.0
  0
ARC
  5
97F
330
A92
100
AcDbEntity
  8
1外形線
100
AcDbCircle
 10
924.8836895745338
 20
1206.965573960187
 30
0.0
 40
0.5
100
AcDbArc
 50
198.4349488229279
 51
270.0
  0
LINE
  5
980
330
A92
100
AcDbEntity
  8
1外形線
100
AcDbLine
 10
924.8836895745338
 20
1206.465573960187
 30
0.0
 11
925.5233099645058
 21
1206.465573960187
 31
0.0
  0
LINE
  5
981
330
A92
100
AcDbEntity
  8
1外形線
100
AcDbLine
 10
918.4233099645055
 20
1206.465573960187
 30
0.0
 11
916.4233099645056
 21
1203.465573960187
 31
0.0
  0
LINE
  5
982
330
A92
100
AcDbEntity
  8
1外形線
100
AcDbLine
 10
916.4233099645057
 20
1203.465573960187
 30
0.0
 11
916.4233099645059
 21
1190.765573960187
 31
0.0
  0
LINE
  5
983
330
A92
100
AcDbEntity
  8
1外形線
100
AcDbLine
 10
919.7233099645059
 20
1206.465573960187
 30
0.0
 11
921.5233099645056
 21
1206.465573960187
 31
0.0
  0
LINE
  5
984
330
A92
100
AcDbEntity
  8
1外形線
100
AcDbLine
 10
919.7233099645057
 20
1190.465573960187
 30
0.0
 11
919.7233099645057
 21
1211.465573960193
 31
0.0
  0
LINE
  5
985
330
A92
100
AcDbEntity
  8
1外形線
100
AcDbLine
 10
921.5233099645056
 20
1206.465573960187
 30
0.0
 11
921.5233099645056
 21
1210.465573960187
 31
0.0
  0
LINE
  5
986
330
A92
100
AcDbEntity
  8
1外形線
100
AcDbLine
 10
918.4233099645055
 20
1211.465573960187
 30
0.0
 11
918.4233099645055
 21
1206.465573960187
 31
0.0
  0
LINE
  5
987
330
A92
100
AcDbEntity
  8
1外形線
100
AcDbLine
 10
918.4233099645055
 20
1206.465573960187
 30
0.0
 11
916.4293971192336
 21
1209.456443228095
 31
0.0
  0
LINE
  5
988
330
A92
100
AcDbEntity
  8
1外形線
100
AcDbLine
 10
924.4093479255083
 20
1206.807460077179
 30
0.0
 11
923.5233099645055
 21
1209.465573960187
 31
0.0
  0
LINE
  5
989
330
A92
100
AcDbEntity
  8
1外形線
100
AcDbLine
 10
944.7233099645057
 20
1228.465573960187
 30
0.0
 11
957.2233099645055
 21
1228.465573960187
 31
0.0
  0
LINE
  5
98A
330
A92
100
AcDbEntity
  8
1外形線
100
AcDbLine
 10
944.7233099645057
 20
1230.465573960187
 30
0.0
 11
957.2233099645055
 21
1230.465573960187
 31
0.0
  0
LINE
  5
98B
330
A92
100
AcDbEntity
  8
1外形線
100
AcDbLine
 10
957.2233099645051
 20
1292.765573960187
 30
0.0
 11
917.4553607720744
 21
1292.765573960187
 31
0.0
  0
LINE
  5
98C
330
A92
100
AcDbEntity
  8
1外形線
100
AcDbLine
 10
957.2233099645055
 20
1262.765573960187
 30
0.0
 11
919.7233099645055
 21
1262.765573960187
 31
0.0
  0
LINE
  5
98D
330
A92
100
AcDbEntity
  8
1外形線
100
AcDbLine
 10
919.7233099645055
 20
1262.765573960187
 30
0.0
 11
919.7233099645051
 21
1292.765573960187
 31
0.0
  0
ARC
  5
98E
330
A92
100
AcDbEntity
  8
1外形線
100
AcDbCircle
 10
917.4553607720746
 20
1293.765573960186
 30
0.0
 40
1.0
100
AcDbArc
 50
150.0000000000005
 51
270.0
  0
ARC
  5
98F
330
A92
100
AcDbEntity
  8
1外形線
100
AcDbCircle
 10
916.9067215019259
 20
1310.755846879572
 30
0.0
 40
15.0
100
AcDbArc
 50
331.6583587281004
 51
0.0
  0
LINE
  5
990
330
A92
100
AcDbEntity
  8
1外形線
100
AcDbLine
 10
957.2233099645051
 20
1323.765573960187
 30
0.0
 11
924.223309964505
 21
1323.765573960187
 31
0.0
  0
LINE
  5
991
330
A92
100
AcDbEntity
  8
1外形線
100
AcDbLine
 10
923.7233099645051
 20
1317.765573960187
 30
0.0
 11
957.2233099645051
 21
1317.765573960187
 31
0.0
  0
LINE
  5
992
330
A92
100
AcDbEntity
  8
1外形線
100
AcDbLine
 10
925.4540956209876
 20
1317.765573960187
 30
0.0
 11
925.4540956209876
 21
1310.55841935092
 31
0.0
  0
LINE
  5
993
330
A92
100
AcDbEntity
  8
1外形線
  6
Continuous
100
AcDbLine
 10
923.223309964505
 20
1322.765573960186
 30
0.0
 11
923.223309964505
 21
1318.265573960186
 31
0.0
  0
ARC
  5
994
330
A92
100
AcDbEntity
  8
1外形線
100
AcDbCircle
 10
923.723309964506
 20
1318.265573960186
 30
0.0
 40
0.5
100
AcDbArc
 50
180.0
 51
270.0
  0
ARC
  5
995
330
A92
100
AcDbEntity
  8
1外形線
100
AcDbCircle
 10
924.2233099645059
 20
1322.765573960186
 30
0.0
 40
1.0
100
AcDbArc
 50
90.0
 51
180.0
  0
LINE
  5
996
330
A92
100
AcDbEntity
  8
1外形線
  6
Continuous
100
AcDbLine
 10
923.9233099645053
 20
1317.765573960187
 30
0.0
 11
923.9233099645053
 21
1310.987628468718
 31
0.0
  0
ARC
  5
997
330
A92
100
AcDbEntity
  8
1外形線
100
AcDbCircle
 10
910.4540956209875
 20
1310.55841935092
 30
0.0
 40
15.0
100
AcDbArc
 50
333.0805701998848
 51
0.0
  0
ARC
  5
998
330
A92
100
AcDbEntity
  8
1外形線
100
AcDbCircle
 10
908.9233099645053
 20
1310.987628468718
 30
0.0
 40
15.0
100
AcDbArc
 50
330.0000000000005
 51
0.0
  0
ARC
  5
999
330
A92
100
AcDbEntity
  8
1外形線
100
AcDbCircle
 10
925.2267705343363
 20
1310.48131014218
 30
0.0
 40
15.0
100
AcDbArc
 50
333.6383711889299
 51
0.0
  0
LINE
  5
99A
330
A92
100
AcDbEntity
  8
1外形線
100
AcDbLine
 10
940.2267705343362
 20
1317.765573960187
 30
0.0
 11
940.2267705343362
 21
1310.48131014218
 31
0.0
  0
LINE
  5
99B
330
A92
100
AcDbEntity
  8
1外形線
100
AcDbLine
 10
931.9067215019259
 20
1317.765573960187
 30
0.0
 11
931.9067215019259
 21
1310.755846879572
 31
0.0
  0
LINE
  5
99C
330
A92
100
AcDbEntity
  8
1外形線
100
AcDbLine
 10
1200.61854081814
 20
1424.646888107854
 30
0.0
 11
1200.61854081814
 21
1023.401660409997
 31
0.0
  0
LINE
  5
99D
330
A92
100
AcDbEntity
  8
1外形線
100
AcDbLine
 10
1083.023309964505
 20
1195.465573960187
 30
0.0
 11
1083.023309964505
 21
1166.465573960187
 31
0.0
  0
LINE
  5
99E
330
A92
100
AcDbEntity
  8
1外形線
100
AcDbLine
 10
1089.023309964505
 20
1166.465573960187
 30
0.0
 11
1089.023309964505
 21
1227.565573960187
 31
0.0
  0
LINE
  5
99F
330
A92
100
AcDbEntity
  8
1外形線
100
AcDbLine
 10
1058.023309964505
 20
1166.465573960187
 30
0.0
 11
1058.023309964505
 21
1231.765573960187
 31
0.0
  0
LINE
  5
9A0
330
A92
100
AcDbEntity
  8
1外形線
100
AcDbLine
 10
1028.023309964505
 20
1168.465573960187
 30
0.0
 11
1028.023309964505
 21
1230.465573960187
 31
0.0
  0
LINE
  5
9A1
330
A92
100
AcDbEntity
  8
1外形線
100
AcDbLine
 10
990.9233099645057
 20
1182.173408983536
 30
0.0
 11
990.9233099645057
 21
1215.959479662652
 31
0.0
  0
ARC
  5
9A2
330
A92
100
AcDbEntity
  8
1外形線
100
AcDbCircle
 10
973.7233099645054
 20
1190.765573960187
 30
0.0
 40
24.29999999999984
100
AcDbArc
 50
270.0
 51
0.0
  0
ARC
  5
9A3
330
A92
100
AcDbEntity
  8
1外形線
100
AcDbCircle
 10
972.7233099645054
 20
1190.465573960187
 30
0.0
 40
22.0
100
AcDbArc
 50
270.0
 51
0.0
  0
LINE
  5
9A4
330
A92
100
AcDbEntity
  8
1外形線
100
AcDbLine
 10
1089.023309964505
 20
1166.465573960187
 30
0.0
 11
1058.023309964505
 21
1166.465573960187
 31
0.0
  0
LINE
  5
9A5
330
A92
100
AcDbEntity
  8
1外形線
100
AcDbLine
 10
969.7233099645062
 20
900.2575850850966
 30
0.0
 11
1003.723309964506
 21
900.2575850850965
 31
0.0
  0
LINE
  5
9A6
330
A92
100
AcDbEntity
  8
1外形線
100
AcDbLine
 10
1004.223309964506
 20
894.2575850850968
 30
0.0
 11
969.7233099645062
 21
894.2575850850968
 31
0.0
  0
LINE
  5
9A7
330
A92
100
AcDbEntity
  8
1外形線
100
AcDbLine
 10
987.7198493946755
 20
894.2575850850968
 30
0.0
 11
987.7198493946755
 21
889.4863491202521
 31
0.0
  0
LINE
  5
9A8
330
A92
100
AcDbEntity
  8
1外形線
100
AcDbLine
 10
996.0398984270856
 20
894.2575850850968
 30
0.0
 11
996.0398984270854
 21
889.4863491202521
 31
0.0
  0
ARC
  5
9A9
330
A92
100
AcDbEntity
  8
1外形線
100
AcDbCircle
 10
1003.723309964506
 20
899.2575850850967
 30
0.0
 40
1.0
100
AcDbArc
 50
0.0
 51
90.0
  0
LINE
  5
9AA
330
A92
100
AcDbEntity
  8
1外形線
  6
Continuous
100
AcDbLine
 10
1004.023309964506
 20
894.2575850850968
 30
0.0
 11
1004.023309964506
 21
889.4863491202521
 31
0.0
  0
LINE
  5
9AB
330
A92
100
AcDbEntity
  8
1外形線
100
AcDbLine
 10
1002.492524308023
 20
894.2575850850968
 30
0.0
 11
1002.492524308024
 21
889.4863491202521
 31
0.0
  0
ARC
  5
9AC
330
A92
100
AcDbEntity
  8
1外形線
100
AcDbCircle
 10
1004.223309964506
 20
894.7575850850967
 30
0.0
 40
0.5
100
AcDbArc
 50
270.0
 51
0.0
  0
LINE
  5
9AD
330
A92
100
AcDbEntity
  8
1外形線
  6
Continuous
100
AcDbLine
 10
1004.723309964506
 20
899.2575850850967
 30
0.0
 11
1004.723309964506
 21
894.7575850850967
 31
0.0
  0
ARC
  5
9AE
330
A92
100
AcDbEntity
  8
1外形線
100
AcDbCircle
 10
972.7233099645054
 20
1190.465573960187
 30
0.0
 40
20.0
100
AcDbArc
 50
270.0
 51
335.5053515285799
  0
LINE
  5
9AF
330
A92
100
AcDbEntity
  8
1外形線
100
AcDbLine
 10
1058.023309964505
 20
1168.465573960187
 30
0.0
 11
1028.023309964505
 21
1168.465573960187
 31
0.0
  0
LINE
  5
9B0
330
A92
100
AcDbEntity
  8
1外形線
100
AcDbLine
 10
1071.132439945606
 20
1167.609351001884
 30
0.0
 11
1058.023309964505
 21
1168.015301320163
 31
0.0
  0
LINE
  5
9B1
330
A92
100
AcDbEntity
  8
1外形線
100
AcDbLine
 10
1070.793560063484
 20
1172.306435535736
 30
0.0
 11
1058.023309964505
 21
1173.282879177354
 31
0.0
  0
LINE
  5
9B2
330
A92
100
AcDbEntity
  8
1外形線
100
AcDbLine
 10
1070.297091971356
 20
1179.392178772613
 30
0.0
 11
1058.023309964505
 21
1181.166366553715
 31
0.0
  0
ARC
  5
9B3
330
A92
100
AcDbEntity
  8
1外形線
100
AcDbCircle
 10
1071.596722260436
 20
1182.602164011194
 30
0.0
 40
15.0
100
AcDbArc
 50
268.226288900459
 51
270.0
  0
ARC
  5
9B4
330
A92
100
AcDbEntity
  8
1外形線
100
AcDbCircle
 10
1071.937157530152
 20
1187.262778164675
 30
0.0
 40
15.0
100
AcDbArc
 50
265.6275366171859
 51
270.0
  0
ARC
  5
9B5
330
A92
100
AcDbEntity
  8
1外形線
100
AcDbCircle
 10
1072.443053338145
 20
1194.237880164338
 30
0.0
 40
15.0
100
AcDbArc
 50
261.77480897893
 51
270.0
  0
LINE
  5
9B6
330
A92
100
AcDbEntity
  8
1外形線
100
AcDbLine
 10
1083.023309964505
 20
1167.602164011194
 30
0.0
 11
1071.596722260436
 21
1167.602164011194
 31
0.0
  0
LINE
  5
9B7
330
A92
100
AcDbEntity
  8
1外形線
100
AcDbLine
 10
1083.023309964505
 20
1172.262778164675
 30
0.0
 11
1071.937157530152
 21
1172.262778164675
 31
0.0
  0
LINE
  5
9B8
330
A92
100
AcDbEntity
  8
1外形線
100
AcDbLine
 10
1083.023309964505
 20
1179.237880164338
 30
0.0
 11
1072.443053338145
 21
1179.237880164338
 31
0.0
  0
LINE
  5
9B9
330
A92
100
AcDbEntity
  8
1外形線
100
AcDbLine
 10
1088.023309964505
 20
1228.565573960187
 30
0.0
 11
1084.023309964505
 21
1228.565573960187
 31
0.0
  0
LINE
  5
9BA
330
A92
100
AcDbEntity
  8
1外形線
100
AcDbLine
 10
1089.023309964505
 20
1201.465573960187
 30
0.0
 11
1083.023309964505
 21
1201.465573960187
 31
0.0
  0
LINE
  5
9BB
330
A92
100
AcDbEntity
  8
1外形線
100
AcDbLine
 10
1083.023309964505
 20
1198.465573960187
 30
0.0
 11
1089.023309964505
 21
1198.465573960187
 31
0.0
  0
LINE
  5
9BC
330
A92
100
AcDbEntity
  8
1外形線
100
AcDbLine
 10
1083.023309964505
 20
1195.465573960187
 30
0.0
 11
1089.023309964505
 21
1195.465573960187
 31
0.0
  0
LINE
  5
9BD
330
A92
100
AcDbEntity
  8
1外形線
100
AcDbLine
 10
981.2583372137922
 20
1292.765573960187
 30
0.0
 11
975.7797093977854
 21
1303.820781870035
 31
0.0
  0
LINE
  5
9BE
330
A92
100
AcDbEntity
  8
1外形線
100
AcDbLine
 10
996.2040814988164
 20
1292.765573960187
 30
0.0
 11
990.6178635371226
 21
1303.767362786338
 31
0.0
  0
LINE
  5
9BF
330
A92
100
AcDbEntity
  8
1外形線
100
AcDbLine
 10
997.8572845607207
 20
1294.265573960187
 30
0.0
 11
992.5329289077385
 21
1303.487628468718
 31
0.0
  0
LINE
  5
9C0
330
A92
100
AcDbEntity
  8
1外形線
100
AcDbLine
 10
990.2006474175186
 20
1292.765573960187
 30
0.0
 11
984.3379099602612
 21
1303.634926958532
 31
0.0
  0
ARC
  5
9C1
330
A92
100
AcDbEntity
  8
1外形線
100
AcDbCircle
 10
991.9233099645055
 20
1210.465573960187
 30
0.0
 40
1.0
100
AcDbArc
 50
0.0
 51
89.99999999999674
  0
ARC
  5
9C2
330
A92
100
AcDbEntity
  8
1外形線
100
AcDbCircle
 10
970.4513687309773
 20
1205.47617760028
 30
0.0
 40
23.0
100
AcDbArc
 50
27.11614535404539
 51
91.66882373033661
  0
ARC
  5
9C3
330
A92
100
AcDbEntity
  8
1外形線
100
AcDbCircle
 10
970.4513687309773
 20
1205.47617760028
 30
0.0
 40
25.0
100
AcDbArc
 50
13.86150830652011
 51
91.66882373033661
  0
ARC
  5
9C4
330
A92
100
AcDbEntity
  8
1外形線
100
AcDbCircle
 10
971.0102838145614
 20
1205.467051531527
 30
0.0
 40
27.29999999999984
100
AcDbArc
 50
8.402811040389915
 51
90.58861964657832
  0
LINE
  5
9C5
330
A92
100
AcDbEntity
  8
1外形線
  6
Continuous
100
AcDbLine
 10
988.4233099645053
 20
1206.965573960187
 30
0.0
 11
988.4233099645058
 21
1219.829202657688
 31
0.0
  0
LINE
  5
9C6
330
A92
100
AcDbEntity
  8
1外形線
100
AcDbLine
 10
991.9233099645055
 20
1211.465573960187
 30
0.0
 11
990.9233099645057
 21
1211.465573960187
 31
0.0
  0
LINE
  5
9C7
330
A92
100
AcDbEntity
  8
1外形線
100
AcDbLine
 10
990.0372720035031
 20
1206.807460077179
 30
0.0
 11
990.9233099645057
 21
1209.465573960187
 31
0.0
  0
LINE
  5
9C8
330
A92
100
AcDbEntity
  8
1外形線
100
AcDbLine
 10
989.5629303544774
 20
1206.465573960187
 30
0.0
 11
988.9233099645052
 21
1206.465573960187
 31
0.0
  0
ARC
  5
9C9
330
A92
100
AcDbEntity
  8
1外形線
100
AcDbCircle
 10
988.9233099645052
 20
1206.965573960187
 30
0.0
 40
0.5
100
AcDbArc
 50
180.0
 51
270.0
  0
ARC
  5
9CA
330
A92
100
AcDbEntity
  8
1外形線
100
AcDbCircle
 10
989.5629303544774
 20
1206.965573960187
 30
0.0
 40
0.5
100
AcDbArc
 50
270.0
 51
341.5650511770721
  0
LINE
  5
9CB
330
A92
100
AcDbEntity
  8
1外形線
100
AcDbLine
 10
994.7233099645055
 20
1211.465573960187
 30
0.0
 11
996.0233099645057
 21
1211.465573960187
 31
0.0
  0
LINE
  5
9CC
330
A92
100
AcDbEntity
  8
1外形線
100
AcDbLine
 10
998.0233099645055
 20
1203.465573960187
 30
0.0
 11
998.0233099645055
 21
1190.765573960187
 31
0.0
  0
LINE
  5
9CD
330
A92
100
AcDbEntity
  8
1外形線
100
AcDbLine
 10
994.7233099645055
 20
1206.465573960187
 30
0.0
 11
992.9233099645058
 21
1206.465573960187
 31
0.0
  0
LINE
  5
9CE
330
A92
100
AcDbEntity
  8
1外形線
100
AcDbLine
 10
996.0233099645057
 20
1206.465573960187
 30
0.0
 11
998.0233099645058
 21
1203.465573960187
 31
0.0
  0
LINE
  5
9CF
330
A92
100
AcDbEntity
  8
1外形線
100
AcDbLine
 10
994.7233099645055
 20
1190.465573960187
 30
0.0
 11
994.7233099645055
 21
1211.465573960193
 31
0.0
  0
LINE
  5
9D0
330
A92
100
AcDbEntity
  8
1外形線
100
AcDbLine
 10
992.9233099645054
 20
1206.465573960187
 30
0.0
 11
992.9233099645054
 21
1210.465573960187
 31
0.0
  0
LINE
  5
9D1
330
A92
100
AcDbEntity
  8
1外形線
100
AcDbLine
 10
996.0233099645057
 20
1211.465573960187
 30
0.0
 11
996.0233099645057
 21
1206.465573960187
 31
0.0
  0
LINE
  5
9D2
330
A92
100
AcDbEntity
  8
1外形線
100
AcDbLine
 10
996.0233099645057
 20
1206.465573960187
 30
0.0
 11
998.0233099645058
 21
1209.465573960187
 31
0.0
  0
LINE
  5
9D3
330
A92
100
AcDbEntity
  8
1外形線
100
AcDbLine
 10
994.7233099645055
 20
1262.765573960187
 30
0.0
 11
994.7233099645055
 21
1292.765573960187
 31
0.0
  0
ARC
  5
9D4
330
A92
100
AcDbEntity
  8
1外形線
100
AcDbCircle
 10
996.9912591569364
 20
1293.765573960187
 30
0.0
 40
1.0
100
AcDbArc
 50
270.0
 51
29.99999999999952
  0
LINE
  5
9D5
330
A92
100
AcDbEntity
  8
1外形線
100
AcDbLine
 10
1028.023309964505
 20
1230.465573960187
 30
0.0
 11
1058.023309964505
 21
1230.465573960187
 31
0.0
  0
LINE
  5
9D6
330
A92
100
AcDbEntity
  8
1外形線
100
AcDbLine
 10
1028.023309964505
 20
1206.465573960187
 30
0.0
 11
1058.023309964505
 21
1206.465573960187
 31
0.0
  0
LINE
  5
9D7
330
A92
100
AcDbEntity
  8
1外形線
100
AcDbLine
 10
1083.023309964505
 20
1227.565573960187
 30
0.0
 11
1083.023309964505
 21
1201.465573960187
 31
0.0
  0
LINE
  5
9D8
330
A92
100
AcDbEntity
  8
1外形線
100
AcDbLine
 10
1069.660938817592
 20
1213.244457396538
 30
0.0
 11
1058.023309964505
 21
1215.998403625313
 31
0.0
  0
LINE
  5
9D9
330
A92
100
AcDbEntity
  8
1外形線
100
AcDbLine
 10
1083.023309964505
 20
1198.465573960187
 30
0.0
 11
1058.023309964505
 21
1206.465573960187
 31
0.0
  0
LINE
  5
9DA
330
A92
100
AcDbEntity
  8
1外形線
100
AcDbLine
 10
1083.023309964505
 20
1201.465573960187
 30
0.0
 11
1058.023309964505
 21
1209.465573960187
 31
0.0
  0
LINE
  5
9DB
330
A92
100
AcDbEntity
  8
1外形線
100
AcDbLine
 10
1083.023309964505
 20
1195.465573960187
 30
0.0
 11
1058.023309964505
 21
1203.465573960187
 31
0.0
  0
ARC
  5
9DC
330
A92
100
AcDbEntity
  8
1外形線
100
AcDbCircle
 10
1073.115162170533
 20
1227.841318053131
 30
0.0
 40
15.0
100
AcDbArc
 50
256.6863512624007
 51
270.0
  0
LINE
  5
9DD
330
A92
100
AcDbEntity
  8
1外形線
100
AcDbLine
 10
1083.023309964505
 20
1212.841318053131
 30
0.0
 11
1073.115162170533
 21
1212.841318053131
 31
0.0
  0
ARC
  5
9DE
330
A92
100
AcDbEntity
  8
1外形線
100
AcDbCircle
 10
1073.915419969847
 20
1241.100622506715
 30
0.0
 40
15.0
100
AcDbArc
 50
250.6972679462775
 51
270.0
  0
ARC
  5
9DF
330
A92
100
AcDbEntity
  8
1外形線
100
AcDbCircle
 10
1074.770251373854
 20
1241.965573960186
 30
0.0
 40
15.0
100
AcDbArc
 50
244.4159132373571
 51
270.0
  0
ARC
  5
9E0
330
A92
100
AcDbEntity
  8
1外形線
100
AcDbCircle
 10
1073.61797305448
 20
1235.789690099257
 30
0.0
 40
15.0
100
AcDbArc
 50
252.912711648178
 51
270.0
  0
LINE
  5
9E1
330
A92
100
AcDbEntity
  8
1外形線
100
AcDbLine
 10
1069.210549069727
 20
1221.451816692834
 30
0.0
 11
1058.023309964505
 21
1224.890744109603
 31
0.0
  0
ARC
  5
9E2
330
A92
100
AcDbEntity
  8
1外形線
100
AcDbCircle
 10
1059.023309964505
 20
1231.765573960187
 30
0.0
 40
1.0
100
AcDbArc
 50
64.41591323735706
 51
180.0
  0
LINE
  5
9E3
330
A92
100
AcDbEntity
  8
1外形線
100
AcDbLine
 10
1068.957029031163
 20
1226.943844649478
 30
0.0
 11
1058.023309964505
 21
1230.773363915299
 31
0.0
  0
LINE
  5
9E4
330
A92
100
AcDbEntity
  8
1外形線
100
AcDbLine
 10
1068.292722494418
 20
1228.436286483898
 30
0.0
 11
1059.455145223134
 21
1232.667526458606
 31
0.0
  0
ARC
  5
9E5
330
A92
100
AcDbEntity
  8
1外形線
100
AcDbCircle
 10
1084.023309964505
 20
1227.565573960187
 30
0.0
 40
1.0
100
AcDbArc
 50
90.0
 51
180.0
  0
LINE
  5
9E6
330
A92
100
AcDbEntity
  8
1外形線
100
AcDbLine
 10
1083.023309964505
 20
1220.789690099258
 30
0.0
 11
1073.61797305448
 21
1220.789690099258
 31
0.0
  0
LINE
  5
9E7
330
A92
100
AcDbEntity
  8
1外形線
100
AcDbLine
 10
1083.023309964505
 20
1226.100622506715
 30
0.0
 11
1073.915419969847
 21
1226.100622506715
 31
0.0
  0
LINE
  5
9E8
330
A92
100
AcDbEntity
  8
1外形線
100
AcDbLine
 10
1074.770251373854
 20
1226.965573960187
 30
0.0
 11
1083.023309964505
 21
1226.965573960187
 31
0.0
  0
ARC
  5
9E9
330
A92
100
AcDbEntity
  8
1外形線
100
AcDbCircle
 10
989.2198493946747
 20
1310.48131014218
 30
0.0
 40
15.0
100
AcDbArc
 50
180.0
 51
206.3616288110701
  0
LINE
  5
9EA
330
A92
100
AcDbEntity
  8
1外形線
100
AcDbLine
 10
974.2198493946744
 20
1317.765573960187
 30
0.0
 11
974.2198493946744
 21
1310.48131014218
 31
0.0
  0
ARC
  5
9EB
330
A92
100
AcDbEntity
  8
1外形線
100
AcDbCircle
 10
997.5398984270848
 20
1310.755846879572
 30
0.0
 40
15.0
100
AcDbArc
 50
180.0
 51
208.3416412718996
  0
LINE
  5
9EC
330
A92
100
AcDbEntity
  8
1外形線
100
AcDbLine
 10
988.9925243080231
 20
1317.765573960187
 30
0.0
 11
988.9925243080231
 21
1310.55841935092
 31
0.0
  0
LINE
  5
9ED
330
A92
100
AcDbEntity
  8
1外形線
100
AcDbLine
 10
982.5398984270846
 20
1317.765573960187
 30
0.0
 11
982.5398984270846
 21
1310.755846879572
 31
0.0
  0
ARC
  5
9EE
330
A92
100
AcDbEntity
  8
1外形線
100
AcDbCircle
 10
990.2233099645052
 20
1322.765573960187
 30
0.0
 40
1.0
100
AcDbArc
 50
0.0
 51
90.0
  0
ARC
  5
9EF
330
A92
100
AcDbEntity
  8
1外形線
100
AcDbCircle
 10
990.7233099645052
 20
1318.265573960187
 30
0.0
 40
0.5
100
AcDbArc
 50
270.0
 51
0.0
  0
LINE
  5
9F0
330
A92
100
AcDbEntity
  8
1外形線
  6
Continuous
100
AcDbLine
 10
991.2233099645055
 20
1322.765573960187
 30
0.0
 11
991.2233099645055
 21
1318.265573960187
 31
0.0
  0
LINE
  5
9F1
330
A92
100
AcDbEntity
  8
1外形線
  6
Continuous
100
AcDbLine
 10
990.5233099645053
 20
1317.765573960187
 30
0.0
 11
990.5233099645053
 21
1310.987628468718
 31
0.0
  0
ARC
  5
9F2
330
A92
100
AcDbEntity
  8
1外形線
100
AcDbCircle
 10
1005.523309964505
 20
1310.987628468719
 30
0.0
 40
15.0
100
AcDbArc
 50
180.0
 51
209.9999999999995
  0
ARC
  5
9F3
330
A92
100
AcDbEntity
  8
1外形線
100
AcDbCircle
 10
1003.992524308023
 20
1310.55841935092
 30
0.0
 40
15.0
100
AcDbArc
 50
180.0
 51
206.9194298001152
  0
ARC
  5
9F4
330
A92
100
AcDbEntity
  8
1外形線
100
AcDbCircle
 10
1088.023309964505
 20
1227.565573960187
 30
0.0
 40
1.0
100
AcDbArc
 50
0.0
 51
90.0
  0
TEXT
  5
9F5
330
A92
100
AcDbEntity
  8
1外形線
100
AcDbText
 10
1250.618540950474
 20
963.4016618476575
 30
0.0
 40
10.0
  1
ST-100-77
  7
KANJI
100
AcDbText
  0
ARC
  5
9F6
330
A92
100
AcDbEntity
  8
1外形線
100
AcDbCircle
 10
1344.415080248309
 20
892.4528131897753
 30
0.0
 40
15.0
100
AcDbArc
 50
180.0
 51
209.9999999999995
  0
LINE
  5
9F7
330
A92
100
AcDbEntity
  8
1外形線
100
AcDbLine
 10
1303.918540818139
 20
900.2575850850966
 30
0.0
 11
1345.418540818139
 21
900.2575850850966
 31
0.0
  0
LINE
  5
9F8
330
A92
100
AcDbEntity
  8
1外形線
100
AcDbLine
 10
1345.918540818139
 20
894.2575850850968
 30
0.0
 11
1303.918540818139
 21
894.2575850850968
 31
0.0
  0
ARC
  5
9F9
330
A92
100
AcDbEntity
  8
1外形線
100
AcDbCircle
 10
1255.10195235556
 20
892.4528131897753
 30
0.0
 40
15.0
100
AcDbArc
 50
330.0000000000005
 51
0.0
  0
LINE
  5
9FA
330
A92
100
AcDbEntity
  8
1外形線
100
AcDbLine
 10
1303.918540818139
 20
900.2575850850966
 30
0.0
 11
1262.41854081814
 21
900.2575850850966
 31
0.0
  0
LINE
  5
9FB
330
A92
100
AcDbEntity
  8
1外形線
100
AcDbLine
 10
1261.918540818139
 20
894.2575850850968
 30
0.0
 11
1303.918540818139
 21
894.2575850850968
 31
0.0
  0
ARC
  5
9FC
330
A92
100
AcDbEntity
  8
1外形線
100
AcDbCircle
 10
1248.649326474622
 20
892.4528131897753
 30
0.0
 40
15.0
100
AcDbArc
 50
330.0000000000005
 51
0.0
  0
ARC
  5
9FD
330
A92
100
AcDbEntity
  8
1外形線
100
AcDbCircle
 10
1247.118540818141
 20
892.4528131897753
 30
0.0
 40
15.0
100
AcDbArc
 50
330.0000000000005
 51
0.0
  0
ARC
  5
9FE
330
A92
100
AcDbEntity
  8
1外形線
100
AcDbCircle
 10
1262.41854081814
 20
899.2575850850967
 30
0.0
 40
1.0
100
AcDbArc
 50
90.0
 51
180.0
  0
LINE
  5
9FF
330
A92
100
AcDbEntity
  8
1外形線
  6
Continuous
100
AcDbLine
 10
1262.118540818139
 20
894.2575850850968
 30
0.0
 11
1262.118540818139
 21
892.4528131897762
 31
0.0
  0
LINE
  5
A00
330
A92
100
AcDbEntity
  8
1外形線
100
AcDbLine
 10
1263.649326474622
 20
894.2575850850968
 30
0.0
 11
1263.649326474622
 21
892.4528131897762
 31
0.0
  0
ARC
  5
A01
330
A92
100
AcDbEntity
  8
1外形線
100
AcDbCircle
 10
1261.918540818139
 20
894.7575850850967
 30
0.0
 40
0.5
100
AcDbArc
 50
180.0
 51
270.0
  0
LINE
  5
A02
330
A92
100
AcDbEntity
  8
1外形線
  6
Continuous
100
AcDbLine
 10
1261.41854081814
 20
899.2575850850967
 30
0.0
 11
1261.41854081814
 21
894.7575850850967
 31
0.0
  0
ARC
  5
A03
330
A92
100
AcDbEntity
  8
1外形線
100
AcDbCircle
 10
1263.42200138797
 20
892.4528131897753
 30
0.0
 40
15.0
100
AcDbArc
 50
330.0000000000005
 51
0.0
  0
LINE
  5
A04
330
A92
100
AcDbEntity
  8
1外形線
100
AcDbLine
 10
1278.42200138797
 20
894.2575850850968
 30
0.0
 11
1278.42200138797
 21
892.4528131897762
 31
0.0
  0
LINE
  5
A05
330
A92
100
AcDbEntity
  8
1外形線
100
AcDbLine
 10
1270.10195235556
 20
894.2575850850968
 30
0.0
 11
1270.10195235556
 21
892.4528131897762
 31
0.0
  0
ARC
  5
A06
330
A92
100
AcDbEntity
  8
1外形線
100
AcDbCircle
 10
1359.187755161657
 20
892.4528131897753
 30
0.0
 40
15.0
100
AcDbArc
 50
180.0
 51
209.9999999999995
  0
LINE
  5
A07
330
A92
100
AcDbEntity
  8
1外形線
100
AcDbLine
 10
1329.415080248309
 20
894.2575850850968
 30
0.0
 11
1329.415080248309
 21
892.4528131897762
 31
0.0
  0
LINE
  5
A08
330
A92
100
AcDbEntity
  8
1外形線
100
AcDbLine
 10
1337.735129280719
 20
894.2575850850968
 30
0.0
 11
1337.735129280719
 21
892.4528131897762
 31
0.0
  0
LINE
  5
A09
330
A92
100
AcDbEntity
  8
1外形線
100
AcDbLine
 10
1344.187755161657
 20
894.2575850850968
 30
0.0
 11
1344.187755161657
 21
892.4528131897762
 31
0.0
  0
ARC
  5
A0A
330
A92
100
AcDbEntity
  8
1外形線
100
AcDbCircle
 10
1352.735129280719
 20
892.4528131897753
 30
0.0
 40
15.0
100
AcDbArc
 50
180.0
 51
209.9999999999995
  0
LINE
  5
A0B
330
A92
100
AcDbEntity
  8
1外形線
  6
Continuous
100
AcDbLine
 10
1345.718540818139
 20
894.2575850850968
 30
0.0
 11
1345.718540818139
 21
892.4528131897762
 31
0.0
  0
LINE
  5
A0C
330
A92
100
AcDbEntity
  8
1外形線
  6
Continuous
100
AcDbLine
 10
1346.41854081814
 20
899.2575850850967
 30
0.0
 11
1346.41854081814
 21
894.7575850850967
 31
0.0
  0
ARC
  5
A0D
330
A92
100
AcDbEntity
  8
1外形線
100
AcDbCircle
 10
1345.918540818139
 20
894.7575850850967
 30
0.0
 40
0.5
100
AcDbArc
 50
270.0
 51
0.0
  0
ARC
  5
A0E
330
A92
100
AcDbEntity
  8
1外形線
100
AcDbCircle
 10
1345.418540818139
 20
899.2575850850967
 30
0.0
 40
1.0
100
AcDbArc
 50
0.0
 51
90.0
  0
ARC
  5
A0F
330
A92
100
AcDbEntity
  8
1外形線
100
AcDbCircle
 10
1360.718540818139
 20
892.4528131897753
 30
0.0
 40
15.0
100
AcDbArc
 50
180.0
 51
209.9999999999995
  0
LINE
  5
AB3
330
A92
100
AcDbEntity
  8
1外形線
100
AcDbLine
 10
514.0233099645057
 20
1363.731212390974
 30
0.0
 11
437.5233099645057
 21
1363.731212390974
 31
0.0
  0
LINE
  5
AB4
330
A92
100
AcDbEntity
  8
1外形線
100
AcDbLine
 10
514.0233099645056
 20
1358.463634533783
 30
0.0
 11
437.5233099645057
 21
1358.463634533783
 31
0.0
  0
LINE
  5
AB5
330
A92
100
AcDbEntity
  8
1外形線
100
AcDbLine
 10
431.5233099645057
 20
1365.580939750949
 30
0.0
 11
596.5233099645057
 21
1365.58093975095
 31
0.0
  0
LINE
  5
AB6
330
A92
100
AcDbEntity
  8
1外形線
100
AcDbLine
 10
514.0233099645057
 20
1350.580147157422
 30
0.0
 11
437.5233099645057
 21
1350.580147157422
 31
0.0
  0
LINE
  5
AB7
330
A92
100
AcDbEntity
  8
1外形線
100
AcDbLine
 10
431.5233099645057
 20
1322.28093975095
 30
0.0
 11
514.0233099645057
 21
1322.28093975095
 31
0.0
  0
LINE
  5
AB8
330
A92
100
AcDbEntity
  8
1外形線
100
AcDbLine
 10
514.0233099645057
 20
1328.28093975095
 30
0.0
 11
431.5233099645057
 21
1328.28093975095
 31
0.0
  0
LINE
  5
AB9
330
A92
100
AcDbEntity
  8
1外形線
100
AcDbLine
 10
514.0233099645057
 20
1325.28093975095
 30
0.0
 11
431.5233099645057
 21
1325.28093975095
 31
0.0
  0
LINE
  5
ABA
330
A92
100
AcDbEntity
  8
1外形線
100
AcDbLine
 10
514.0233099645056
 20
1300.973149795839
 30
0.0
 11
437.5233099645057
 21
1300.973149795839
 31
0.0
  0
LINE
  5
ABB
330
A92
100
AcDbEntity
  8
1外形線
100
AcDbLine
 10
514.0233099645056
 20
1298.98093975095
 30
0.0
 11
437.4772491659227
 21
1298.98093975095
 31
0.0
  0
LINE
  5
ABD
330
A92
100
AcDbEntity
  8
1外形線
100
AcDbLine
 10
431.5233099645057
 20
1365.58093975095
 30
0.0
 11
431.5233099645057
 21
1299.28093975095
 31
0.0
  0
LINE
  5
ABE
330
A92
100
AcDbEntity
  8
1外形線
100
AcDbLine
 10
437.5233099645057
 20
1328.28093975095
 30
0.0
 11
437.5233099645057
 21
1365.58093975095
 31
0.0
  0
LINE
  5
ABF
330
A92
100
AcDbEntity
  8
1外形線
100
AcDbLine
 10
547.16004460555
 20
1306.855769601534
 30
0.0
 11
480.8865753234614
 21
1306.855769601534
 31
0.0
  0
LINE
  5
AC0
330
A92
100
AcDbEntity
  8
1外形線
100
AcDbLine
 10
547.0233099645055
 20
1315.748110085824
 30
0.0
 11
481.0233099645058
 21
1315.748110085824
 31
0.0
  0
LINE
  5
AC1
330
A92
100
AcDbEntity
  8
1外形線
100
AcDbLine
 10
437.5233099645057
 20
1299.28093975095
 30
0.0
 11
437.5233099645057
 21
1322.28093975095
 31
0.0
  0
ARC
  5
AC2
330
A92
100
AcDbEntity
  8
1外形線
100
AcDbCircle
 10
432.5233099645057
 20
1299.28093975095
 30
0.0
 40
1.0
100
AcDbArc
 50
180.0
 51
270.0
  0
LINE
  5
AC3
330
A92
100
AcDbEntity
  8
1外形線
100
AcDbLine
 10
432.5233099645057
 20
1298.28093975095
 30
0.0
 11
436.5233099645057
 21
1298.28093975095
 31
0.0
  0
ARC
  5
AC4
330
A92
100
AcDbEntity
  8
1外形線
100
AcDbCircle
 10
436.5233099645057
 20
1299.28093975095
 30
0.0
 40
1.0
100
AcDbArc
 50
270.0
 51
0.0
  0
LINE
  5
AC6
330
A92
100
AcDbEntity
  8
1外形線
100
AcDbLine
 10
596.5233099645057
 20
1365.58093975095
 30
0.0
 11
437.5233099645057
 21
1365.58093975095
 31
0.0
  0
LINE
  5
AC7
330
A92
100
AcDbEntity
  8
1外形線
100
AcDbLine
 10
514.0233099645057
 20
1325.28093975095
 30
0.0
 11
596.5233099645057
 21
1325.28093975095
 31
0.0
  0
LINE
  5
AC8
330
A92
100
AcDbEntity
  8
1外形線
100
AcDbLine
 10
514.0233099645057
 20
1328.28093975095
 30
0.0
 11
596.5233099645057
 21
1328.28093975095
 31
0.0
  0
LINE
  5
AC9
330
A92
100
AcDbEntity
  8
1外形線
100
AcDbLine
 10
596.5233099645057
 20
1322.28093975095
 30
0.0
 11
514.0233099645057
 21
1322.28093975095
 31
0.0
  0
LINE
  5
ACA
330
A92
100
AcDbEntity
  8
1外形線
100
AcDbLine
 10
595.5233099645057
 20
1298.28093975095
 30
0.0
 11
591.5233099645057
 21
1298.28093975095
 31
0.0
  0
LINE
  5
AE6
330
A92
100
AcDbEntity
  8
1外形線
100
AcDbLine
 10
590.5233099645057
 20
1328.28093975095
 30
0.0
 11
590.5233099645057
 21
1365.58093975095
 31
0.0
  0
LINE
  5
AE9
330
A92
100
AcDbEntity
  8
1外形線
100
AcDbLine
 10
514.0233099645057
 20
1358.463634533783
 30
0.0
 11
590.5233099645057
 21
1358.463634533783
 31
0.0
  0
LINE
  5
AEA
330
A92
100
AcDbEntity
  8
1外形線
100
AcDbLine
 10
514.0233099645057
 20
1363.731212390974
 30
0.0
 11
590.5233099645057
 21
1363.731212390974
 31
0.0
  0
LINE
  5
AEB
330
A92
100
AcDbEntity
  8
1外形線
100
AcDbLine
 10
514.0233099645057
 20
1350.580147157422
 30
0.0
 11
590.5233099645057
 21
1350.580147157422
 31
0.0
  0
LINE
  5
AEC
330
A92
100
AcDbEntity
  8
1外形線
100
AcDbLine
 10
514.0233099645057
 20
1300.973149795839
 30
0.0
 11
590.5233099645057
 21
1300.973149795839
 31
0.0
  0
LINE
  5
AED
330
A92
100
AcDbEntity
  8
1外形線
100
AcDbLine
 10
514.0233099645056
 20
1298.98093975095
 30
0.0
 11
590.5693707630887
 21
1298.98093975095
 31
0.0
  0
LINE
  5
AF0
330
A92
100
AcDbEntity
  8
1外形線
100
AcDbLine
 10
555.8865753234613
 20
1306.855769601534
 30
0.0
 11
590.5233099645057
 21
1306.855769601534
 31
0.0
  0
LINE
  5
AFC
330
A92
100
AcDbEntity
  8
1外形線
100
AcDbLine
 10
590.5233099645057
 20
1299.28093975095
 30
0.0
 11
590.5233099645057
 21
1322.28093975095
 31
0.0
  0
LINE
  5
AFD
330
A92
100
AcDbEntity
  8
1外形線
100
AcDbLine
 10
556.0233099645056
 20
1315.748110085824
 30
0.0
 11
590.5233099645057
 21
1315.748110085824
 31
0.0
  0
ARC
  5
AFE
330
A92
100
AcDbEntity
  8
1外形線
100
AcDbCircle
 10
591.5233099645057
 20
1299.28093975095
 30
0.0
 40
1.0
100
AcDbArc
 50
180.0
 51
270.0
  0
LINE
  5
AFF
330
A92
100
AcDbEntity
  8
1外形線
100
AcDbLine
 10
596.5233099645057
 20
1365.58093975095
 30
0.0
 11
596.5233099645057
 21
1299.28093975095
 31
0.0
  0
ARC
  5
B00
330
A92
100
AcDbEntity
  8
1外形線
100
AcDbCircle
 10
595.5233099645057
 20
1299.28093975095
 30
0.0
 40
1.0
100
AcDbArc
 50
270.0
 51
0.0
  0
LINE
  5
B85
330
A92
100
AcDbEntity
  8
1外形線
100
AcDbLine
 10
556.0233099645056
 20
1307.956639896954
 30
0.0
 11
556.0233099645056
 21
1320.28093975095
 31
0.0
  0
LINE
  5
B86
330
A92
100
AcDbEntity
  8
1外形線
100
AcDbLine
 10
547.0233099645056
 20
1307.956639896954
 30
0.0
 11
547.0233099645056
 21
1320.28093975095
 31
0.0
  0
LINE
  5
B87
330
A92
100
AcDbEntity
  8
1外形線
100
AcDbLine
 10
556.0233099645056
 20
1320.28093975095
 30
0.0
 11
547.0233099645056
 21
1320.28093975095
 31
0.0
  0
ARC
  5
B8A
330
A92
100
AcDbEntity
  8
1外形線
100
AcDbCircle
 10
551.5233099645057
 20
1307.956639896954
 30
0.0
 40
4.5
100
AcDbArc
 50
180.0
 51
0.0
  0
LINE
  5
B8B
330
A92
100
AcDbEntity
  8
1外形線
100
AcDbLine
 10
472.0233099645058
 20
1307.956639896954
 30
0.0
 11
472.0233099645058
 21
1320.28093975095
 31
0.0
  0
LINE
  5
B8C
330
A92
100
AcDbEntity
  8
1外形線
100
AcDbLine
 10
481.0233099645058
 20
1307.956639896954
 30
0.0
 11
481.0233099645058
 21
1320.28093975095
 31
0.0
  0
LINE
  5
B8D
330
A92
100
AcDbEntity
  8
1外形線
100
AcDbLine
 10
472.0233099645058
 20
1320.28093975095
 30
0.0
 11
481.0233099645058
 21
1320.28093975095
 31
0.0
  0
ARC
  5
B8E
330
A92
100
AcDbEntity
  8
1外形線
100
AcDbCircle
 10
476.5233099645057
 20
1307.956639896954
 30
0.0
 40
4.5
100
AcDbArc
 50
180.0
 51
0.0
  0
LINE
  5
B8F
330
A92
100
AcDbEntity
  8
1外形線
100
AcDbLine
 10
472.16004460555
 20
1306.855769601534
 30
0.0
 11
437.5233099645057
 21
1306.855769601534
 31
0.0
  0
LINE
  5
B92
330
A92
100
AcDbEntity
  8
1外形線
100
AcDbLine
 10
472.0233099645058
 20
1315.748110085824
 30
0.0
 11
437.5233099645057
 21
1315.748110085824
 31
0.0
  0
LINE
  5
B97
330
A92
100
AcDbEntity
  8
C4
100
AcDbLine
 10
440.5233099645058
 20
938.5038040615748
 30
0.0
 11
531.523309964506
 21
938.5038040615748
 31
0.0
  0
LINE
  5
B98
330
A92
100
AcDbEntity
  8
C4
100
AcDbLine
 10
440.5233099645058
 20
930.2853833175429
 30
0.0
 11
531.523309964506
 21
930.2853833175428
 31
0.0
  0
LINE
  5
B99
330
A92
100
AcDbEntity
  8
C4
100
AcDbLine
 10
531.523309964506
 20
902.1869048010257
 30
0.0
 11
431.5233099645054
 21
902.1869048010257
 31
0.0
  0
LINE
  5
B9A
330
A92
100
AcDbEntity
  8
C4
100
AcDbLine
 10
531.523309964506
 20
908.1869048010256
 30
0.0
 11
431.5233099645054
 21
908.1869048010256
 31
0.0
  0
LINE
  5
B9B
330
A92
100
AcDbEntity
  8
C4
100
AcDbLine
 10
531.523309964506
 20
905.1869048010255
 30
0.0
 11
431.5233099645054
 21
905.1869048010255
 31
0.0
  0
LINE
  5
B9C
330
A92
100
AcDbEntity
  8
C4
100
AcDbLine
 10
531.523309964506
 20
876.8942293881359
 30
0.0
 11
481.0233099645055
 21
876.8942293881362
 31
0.0
  0
LINE
  5
B9D
330
A92
100
AcDbEntity
  8
C4
100
AcDbLine
 10
531.523309964506
 20
886.2482005455376
 30
0.0
 11
481.0233099645055
 21
886.2482005455376
 31
0.0
  0
LINE
  5
B9F
330
A92
100
AcDbEntity
  8
C4
100
AcDbLine
 10
440.5233099645058
 20
944.0858838712706
 30
0.0
 11
531.523309964506
 21
944.0858838712706
 31
0.0
  0
LINE
  5
BA0
330
A92
100
AcDbEntity
  8
C4
100
AcDbLine
 10
531.5233099645054
 20
946.1869048010257
 30
0.0
 11
431.5233099645058
 21
946.1869048010257
 31
0.0
  0
LINE
  5
BA2
330
A92
100
AcDbEntity
  8
C4
100
AcDbLine
 10
531.523309964506
 20
870.5535136412979
 30
0.0
 11
440.5233099645057
 21
870.5535136412979
 31
0.0
  0
LINE
  5
BA3
330
A92
100
AcDbEntity
  8
C4
100
AcDbLine
 10
531.523309964506
 20
868.1869048010256
 30
0.0
 11
440.5233099645057
 21
868.1869048010256
 31
0.0
  0
LINE
  5
BA4
330
A92
100
AcDbEntity
  8
C4
100
AcDbLine
 10
431.5233099645057
 20
868.4869048010257
 30
0.0
 11
431.5233099645058
 21
946.1869048010257
 31
0.0
  0
LINE
  5
BA5
330
A92
100
AcDbEntity
  8
C4
100
AcDbLine
 10
440.5233099645057
 20
908.1869048010256
 30
0.0
 11
440.5233099645058
 21
946.1869048010257
 31
0.0
  0
LINE
  5
BA6
330
A92
100
AcDbEntity
  8
C4
100
AcDbLine
 10
440.5233099645057
 20
868.4869048010257
 30
0.0
 11
440.5233099645057
 21
902.1869048010257
 31
0.0
  0
ARC
  5
BA7
330
A92
100
AcDbEntity
  8
C4
100
AcDbCircle
 10
439.5233099645057
 20
868.4869048010257
 30
0.0
 40
1.0
100
AcDbArc
 50
270.0
 51
0.0
  0
ARC
  5
BA8
330
A92
100
AcDbEntity
  8
C4
100
AcDbCircle
 10
432.5233099645057
 20
868.4869048010257
 30
0.0
 40
1.0
100
AcDbArc
 50
180.0
 51
270.0
  0
LINE
  5
BA9
330
A92
100
AcDbEntity
  8
C4
100
AcDbLine
 10
439.5233099645057
 20
867.4869048010258
 30
0.0
 11
432.5233099645057
 21
867.4869048010258
 31
0.0
  0
LINE
  5
BAA
330
A92
100
AcDbEntity
  8
C4
100
AcDbLine
 10
631.5233099645056
 20
868.4869048010259
 30
0.0
 11
631.5233099645055
 21
946.186904801026
 31
0.0
  0
LINE
  5
BAB
330
A92
100
AcDbEntity
  8
C4
100
AcDbLine
 10
622.5233099645055
 20
908.1869048010258
 30
0.0
 11
622.5233099645055
 21
946.186904801026
 31
0.0
  0
LINE
  5
BAF
330
A92
100
AcDbEntity
  8
C4
100
AcDbLine
 10
531.523309964506
 20
946.1869048010257
 30
0.0
 11
631.5233099645055
 21
946.1869048010257
 31
0.0
  0
LINE
  5
BB0
330
A92
100
AcDbEntity
  8
C4
100
AcDbLine
 10
622.5233099645055
 20
930.2853833175429
 30
0.0
 11
531.523309964506
 21
930.2853833175424
 31
0.0
  0
LINE
  5
BB1
330
A92
100
AcDbEntity
  8
C4
100
AcDbLine
 10
622.5233099645055
 20
938.503804061575
 30
0.0
 11
531.523309964506
 21
938.5038040615748
 31
0.0
  0
LINE
  5
BB2
330
A92
100
AcDbEntity
  8
C4
100
AcDbLine
 10
622.5233099645055
 20
944.0858838712708
 30
0.0
 11
531.523309964506
 21
944.0858838712705
 31
0.0
  0
LINE
  5
BC2
330
A92
100
AcDbEntity
  8
C4
100
AcDbLine
 10
531.523309964506
 20
902.1869048010257
 30
0.0
 11
631.5233099645055
 21
902.1869048010257
 31
0.0
  0
LINE
  5
BC3
330
A92
100
AcDbEntity
  8
C4
100
AcDbLine
 10
531.523309964506
 20
908.1869048010256
 30
0.0
 11
631.5233099645055
 21
908.1869048010258
 31
0.0
  0
LINE
  5
BC4
330
A92
100
AcDbEntity
  8
C4
100
AcDbLine
 10
531.523309964506
 20
905.1869048010258
 30
0.0
 11
631.5233099645056
 21
905.1869048010258
 31
0.0
  0
LINE
  5
BC5
330
A92
100
AcDbEntity
  8
C4
100
AcDbLine
 10
531.523309964506
 20
870.5535136412979
 30
0.0
 11
622.5233099645055
 21
870.5535136412981
 31
0.0
  0
LINE
  5
BC6
330
A92
100
AcDbEntity
  8
C4
100
AcDbLine
 10
531.523309964506
 20
876.8942293881362
 30
0.0
 11
582.0233099645057
 21
876.8942293881364
 31
0.0
  0
LINE
  5
BC7
330
A92
100
AcDbEntity
  8
C4
100
AcDbLine
 10
531.523309964506
 20
886.2482005455374
 30
0.0
 11
582.0233099645057
 21
886.2482005455376
 31
0.0
  0
LINE
  5
BC8
330
A92
100
AcDbEntity
  8
C4
100
AcDbLine
 10
531.523309964506
 20
868.1869048010256
 30
0.0
 11
622.5233099645057
 21
868.1869048010257
 31
0.0
  0
LINE
  5
BE1
330
A92
100
AcDbEntity
  8
C4
100
AcDbLine
 10
622.5233099645057
 20
868.4869048010259
 30
0.0
 11
622.5233099645055
 21
902.1869048010257
 31
0.0
  0
LINE
  5
BE2
330
A92
100
AcDbEntity
  8
C4
100
AcDbLine
 10
623.5233099645056
 20
867.4869048010259
 30
0.0
 11
630.5233099645057
 21
867.4869048010259
 31
0.0
  0
ARC
  5
BE3
330
A92
100
AcDbEntity
  8
C4
100
AcDbCircle
 10
623.5233099645056
 20
868.4869048010259
 30
0.0
 40
1.0
100
AcDbArc
 50
180.0
 51
270.0
  0
ARC
  5
BE4
330
A92
100
AcDbEntity
  8
C4
100
AcDbCircle
 10
630.5233099645057
 20
868.4869048010259
 30
0.0
 40
1.0
100
AcDbArc
 50
270.0
 51
0.0
  0
LINE
  5
BE6
330
A92
100
AcDbEntity
  8
1外形線
100
AcDbLine
 10
591.0233099645056
 20
876.8928726120289
 30
0.0
 11
591.0233099645057
 21
876.8942293881362
 31
0.0
  0
LINE
  5
BE7
330
A92
100
AcDbEntity
  8
1外形線
100
AcDbLine
 10
582.0233099645057
 20
900.1869048010258
 30
0.0
 11
591.0233099645057
 21
900.1869048010258
 31
0.0
  0
LINE
  5
BE8
330
A92
100
AcDbEntity
  8
1外形線
100
AcDbLine
 10
582.0233099645057
 20
876.8928726120289
 30
0.0
 11
582.0233099645057
 21
876.8942293881362
 31
0.0
  0
ARC
  5
C69
330
A92
100
AcDbEntity
  8
1外形線
100
AcDbCircle
 10
586.5233099645057
 20
877.8928726120289
 30
0.0
 40
4.5
100
AcDbArc
 50
180.0
 51
0.0
  0
LINE
  5
C6A
330
A92
100
AcDbEntity
  8
C4
100
AcDbLine
 10
591.0233099645056
 20
876.8942293881364
 30
0.0
 11
622.5233099645055
 21
876.8942293881364
 31
0.0
  0
LINE
  5
C6B
330
A92
100
AcDbEntity
  8
C4
100
AcDbLine
 10
591.0233099645056
 20
886.2482005455378
 30
0.0
 11
622.5233099645055
 21
886.2482005455381
 31
0.0
  0
LINE
  5
C6C
330
A92
100
AcDbEntity
  8
1外形線
100
AcDbLine
 10
472.0233099645055
 20
876.8928726120286
 30
0.0
 11
472.0233099645055
 21
876.8942293881362
 31
0.0
  0
LINE
  5
C6D
330
A92
100
AcDbEntity
  8
1外形線
100
AcDbLine
 10
481.0233099645054
 20
900.1869048010256
 30
0.0
 11
472.0233099645054
 21
900.1869048010256
 31
0.0
  0
LINE
  5
C6E
330
A92
100
AcDbEntity
  8
1外形線
100
AcDbLine
 10
481.0233099645055
 20
876.8928726120286
 30
0.0
 11
481.0233099645055
 21
876.8942293881362
 31
0.0
  0
ARC
  5
C6F
330
A92
100
AcDbEntity
  8
1外形線
100
AcDbCircle
 10
476.5233099645055
 20
877.8928726120286
 30
0.0
 40
4.5
100
AcDbArc
 50
180.0
 51
0.0
  0
LINE
  5
C70
330
A92
100
AcDbEntity
  8
C4
100
AcDbLine
 10
472.0233099645055
 20
886.2482005455378
 30
0.0
 11
440.5233099645057
 21
886.2482005455376
 31
0.0
  0
LINE
  5
C71
330
A92
100
AcDbEntity
  8
C4
100
AcDbLine
 10
472.0233099645055
 20
876.8942293881364
 30
0.0
 11
440.523309964506
 21
876.8942293881364
 31
0.0
  0
LINE
  5
C72
330
A92
100
AcDbEntity
  8
1外形線
100
AcDbLine
 10
481.0233099645055
 20
877.8928726120286
 30
0.0
 11
481.0233099645054
 21
900.1869048010258
 31
0.0
  0
LINE
  5
C73
330
A92
100
AcDbEntity
  8
1外形線
100
AcDbLine
 10
472.0233099645055
 20
877.8928726120286
 30
0.0
 11
472.0233099645054
 21
900.1869048010256
 31
0.0
  0
LINE
  5
C74
330
A92
100
AcDbEntity
  8
1外形線
100
AcDbLine
 10
591.0233099645057
 20
877.8928726120289
 30
0.0
 11
591.0233099645057
 21
900.1869048010258
 31
0.0
  0
LINE
  5
C75
330
A92
100
AcDbEntity
  8
1外形線
100
AcDbLine
 10
582.0233099645057
 20
877.8928726120289
 30
0.0
 11
582.0233099645057
 21
900.1869048010258
 31
0.0
  0
LINE
  5
C7E
330
A92
100
AcDbEntity
  8
C4
100
AcDbLine
 10
556.5233099645058
 20
387.6893765403534
 30
0.0
 11
486.0233099645001
 21
387.6893765403534
 31
0.0
  0
LINE
  5
C7F
330
A92
100
AcDbEntity
  8
C4
100
AcDbLine
 10
556.523309964506
 20
379.7655041872076
 30
0.0
 11
485.9147994211105
 21
379.7655041872076
 31
0.0
  0
LINE
  5
C80
330
A92
100
AcDbEntity
  8
C4
100
AcDbLine
 10
556.5233099645058
 20
374.3853737823465
 30
0.0
 11
439.5233099645055
 21
374.3853737823465
 31
0.0
  0
LINE
  5
C81
330
A92
100
AcDbEntity
  8
C4
100
AcDbLine
 10
439.5233099645055
 20
372.7967271074644
 30
0.0
 11
556.523309964506
 21
372.7967271074644
 31
0.0
  0
LINE
  5
C82
330
A92
100
AcDbEntity
  8
C4
100
AcDbLine
 10
556.523309964506
 20
449.8450118408154
 30
0.0
 11
439.5233099645055
 21
449.8450118408154
 31
0.0
  0
LINE
  5
C83
330
A92
100
AcDbEntity
  8
C4
100
AcDbLine
 10
556.523309964506
 20
440.4114293003103
 30
0.0
 11
439.5233099645053
 21
440.4114293003103
 31
0.0
  0
LINE
  5
C84
330
A92
100
AcDbEntity
  8
C4
100
AcDbLine
 10
556.5233099645058
 20
455.6607868504095
 30
0.0
 11
439.5233099645055
 21
455.6607868504096
 31
0.0
  0
LINE
  5
C85
330
A92
100
AcDbEntity
  8
C4
100
AcDbLine
 10
431.5233099645054
 20
456.9967271074641
 30
0.0
 11
681.5233099645058
 21
456.9967271074649
 31
0.0
  0
LINE
  5
C86
330
A92
100
AcDbEntity
  8
C4
100
AcDbLine
 10
556.5233099645058
 20
405.89672710747
 30
0.0
 11
431.5233099645057
 21
405.8967271074601
 31
0.0
  0
LINE
  5
C87
330
A92
100
AcDbEntity
  8
C4
100
AcDbLine
 10
556.5233099645058
 20
411.8967271074643
 30
0.0
 11
431.5233099645057
 21
411.8967271074643
 31
0.0
  0
LINE
  5
C88
330
A92
100
AcDbEntity
  8
C4
100
AcDbLine
 10
431.5233099645057
 20
408.8967271074642
 30
0.0
 11
556.5233099645058
 21
408.8967271074642
 31
0.0
  0
LINE
  5
C89
330
A92
100
AcDbEntity
  8
C4
100
AcDbLine
 10
431.5233099645057
 20
373.0967271074641
 30
0.0
 11
431.5233099645054
 21
456.9967271074641
 31
0.0
  0
LINE
  5
C8A
330
A92
100
AcDbEntity
  8
C4
100
AcDbLine
 10
439.5233099645053
 20
411.8967271074643
 30
0.0
 11
439.5233099645055
 21
456.9967271074641
 31
0.0
  0
LINE
  5
C8B
330
A92
100
AcDbEntity
  8
C4
100
AcDbLine
 10
439.5233099645055
 20
372.7967271074644
 30
0.0
 11
439.5233099645053
 21
405.8967271074606
 31
0.0
  0
ARC
  5
C8C
330
A92
100
AcDbEntity
  8
C4
100
AcDbCircle
 10
438.5693707630886
 20
373.0967271074646
 30
0.0
 40
1.0
100
AcDbArc
 50
270.0000000000033
 51
342.542396876281
  0
ARC
  5
C8D
330
A92
100
AcDbEntity
  8
C4
100
AcDbCircle
 10
432.5233099645057
 20
373.0967271074641
 30
0.0
 40
1.0
100
AcDbArc
 50
180.0
 51
270.0
  0
LINE
  5
C8E
330
A92
100
AcDbEntity
  8
C4
100
AcDbLine
 10
432.5233099645057
 20
372.0967271074641
 30
0.0
 11
438.5693707630886
 21
372.0967271074646
 31
0.0
  0
LINE
  5
C8F
330
A92
100
AcDbEntity
  8
C4
100
AcDbLine
 10
681.523309964506
 20
373.0967271074641
 30
0.0
 11
681.523309964506
 21
456.9967271074641
 31
0.0
  0
LINE
  5
C90
330
A92
100
AcDbEntity
  8
C4
100
AcDbLine
 10
673.523309964506
 20
411.8967271074642
 30
0.0
 11
673.523309964506
 21
456.9967271074641
 31
0.0
  0
LINE
  5
C97
330
A92
100
AcDbEntity
  8
C4
100
AcDbLine
 10
681.523309964506
 20
456.9967271074641
 30
0.0
 11
439.5233099645055
 21
456.996727107465
 31
0.0
  0
LINE
  5
CA8
330
A92
100
AcDbEntity
  8
C4
100
AcDbLine
 10
556.5233099645058
 20
440.4114293003102
 30
0.0
 11
673.523309964506
 21
440.4114293003102
 31
0.0
  0
LINE
  5
CA9
330
A92
100
AcDbEntity
  8
C4
100
AcDbLine
 10
556.523309964506
 20
449.8450118408153
 30
0.0
 11
673.523309964506
 21
449.8450118408153
 31
0.0
  0
LINE
  5
CAA
330
A92
100
AcDbEntity
  8
C4
100
AcDbLine
 10
556.5233099645058
 20
455.6607868504096
 30
0.0
 11
673.523309964506
 21
455.6607868504096
 31
0.0
  0
LINE
  5
CBA
330
A92
100
AcDbEntity
  8
C4
100
AcDbLine
 10
556.5233099645058
 20
387.6893765403533
 30
0.0
 11
627.0233099645113
 21
387.6893765403533
 31
0.0
  0
LINE
  5
CBB
330
A92
100
AcDbEntity
  8
C4
100
AcDbLine
 10
556.523309964506
 20
379.7655041872076
 30
0.0
 11
627.131820507901
 21
379.7655041872076
 31
0.0
  0
LINE
  5
CBC
330
A92
100
AcDbEntity
  8
C4
100
AcDbLine
 10
556.5233099645058
 20
374.3853737823464
 30
0.0
 11
673.523309964506
 21
374.3853737823465
 31
0.0
  0
LINE
  5
CBD
330
A92
100
AcDbEntity
  8
C4
100
AcDbLine
 10
673.523309964506
 20
372.7967271074644
 30
0.0
 11
556.5233099645058
 21
372.7967271074644
 31
0.0
  0
LINE
  5
CBE
330
A92
100
AcDbEntity
  8
C4
100
AcDbLine
 10
681.523309964506
 20
408.8967271074642
 30
0.0
 11
556.5233099645058
 21
408.8967271074642
 31
0.0
  0
LINE
  5
CBF
330
A92
100
AcDbEntity
  8
C4
100
AcDbLine
 10
556.523309964506
 20
411.8967271074643
 30
0.0
 11
681.523309964506
 21
411.8967271074642
 31
0.0
  0
LINE
  5
CC0
330
A92
100
AcDbEntity
  8
C4
100
AcDbLine
 10
556.523309964506
 20
405.89672710747
 30
0.0
 11
681.523309964506
 21
405.89672710746
 31
0.0
  0
LINE
  5
CCA
330
A92
100
AcDbEntity
  8
C4
100
AcDbLine
 10
673.523309964506
 20
372.7967271074644
 30
0.0
 11
673.523309964506
 21
405.8967271074606
 31
0.0
  0
ARC
  5
CCB
330
A92
100
AcDbEntity
  8
C4
100
AcDbCircle
 10
680.5233099645059
 20
373.0967271074641
 30
0.0
 40
1.0
100
AcDbArc
 50
270.0
 51
0.0
  0
ARC
  5
CCC
330
A92
100
AcDbEntity
  8
C4
100
AcDbCircle
 10
674.4772491659226
 20
373.0967271074645
 30
0.0
 40
1.0
100
AcDbArc
 50
197.4576031237189
 51
269.9999999999968
  0
LINE
  5
CCD
330
A92
100
AcDbEntity
  8
C4
100
AcDbLine
 10
680.5233099645059
 20
372.0967271074641
 30
0.0
 11
674.4772491659226
 21
372.0967271074645
 31
0.0
  0
LINE
  5
D16
330
A92
100
AcDbEntity
  8
1外形線
100
AcDbLine
 10
636.0233099645061
 20
380.7477568800141
 30
0.0
 11
636.0233099645061
 21
403.8967271074637
 31
0.0
  0
LINE
  5
D17
330
A92
100
AcDbEntity
  8
1外形線
100
AcDbLine
 10
627.0233099645126
 20
403.8967271074644
 30
0.0
 11
636.0233099645061
 21
403.8967271074637
 31
0.0
  0
LINE
  5
D18
330
A92
100
AcDbEntity
  8
1外形線
100
AcDbLine
 10
627.0233099645107
 20
380.7477568800145
 30
0.0
 11
627.0233099645126
 21
403.8967271074644
 31
0.0
  0
ARC
  5
D19
330
A92
100
AcDbEntity
  8
C4
100
AcDbCircle
 10
631.5233099645061
 20
380.7477568800141
 30
0.0
 40
4.5
100
AcDbArc
 50
180.0
 51
0.0
  0
LINE
  5
D1A
330
A92
100
AcDbEntity
  8
C4
100
AcDbLine
 10
636.0233099645061
 20
387.6893765403533
 30
0.0
 11
673.523309964506
 21
387.6893765403533
 31
0.0
  0
LINE
  5
D1B
330
A92
100
AcDbEntity
  8
C4
100
AcDbLine
 10
635.9147994211113
 20
379.7655041872076
 30
0.0
 11
673.523309964506
 21
379.7655041872076
 31
0.0
  0
LINE
  5
D1C
330
A92
100
AcDbEntity
  8
1外形線
100
AcDbLine
 10
477.0233099645053
 20
380.7477568800141
 30
0.0
 11
477.0233099645053
 21
403.8967271074637
 31
0.0
  0
LINE
  5
D1D
330
A92
100
AcDbEntity
  8
1外形線
100
AcDbLine
 10
486.0233099644988
 20
403.8967271074644
 30
0.0
 11
477.0233099645053
 21
403.8967271074637
 31
0.0
  0
LINE
  5
D1E
330
A92
100
AcDbEntity
  8
1外形線
100
AcDbLine
 10
486.0233099645007
 20
380.7477568800145
 30
0.0
 11
486.0233099644988
 21
403.8967271074644
 31
0.0
  0
ARC
  5
D1F
330
A92
100
AcDbEntity
  8
C4
100
AcDbCircle
 10
481.5233099645053
 20
380.7477568800141
 30
0.0
 40
4.5
100
AcDbArc
 50
180.0
 51
0.0
  0
LINE
  5
D20
330
A92
100
AcDbEntity
  8
C4
100
AcDbLine
 10
477.0233099645053
 20
387.6893765403534
 30
0.0
 11
439.5233099645055
 21
387.6893765403534
 31
0.0
  0
LINE
  5
D21
330
A92
100
AcDbEntity
  8
C4
100
AcDbLine
 10
477.1318205079001
 20
379.7655041872076
 30
0.0
 11
439.5233099645053
 21
379.7655041872076
 31
0.0
  0
ENDSEC
  0
SECTION
  2
OBJECTS
  0
DICTIONARY
  5
A28
330
0
100
AcDbDictionary
281
     1
  3
ACAD_COLOR
350
A89
  3
ACAD_GROUP
350
A29
  3
ACAD_LAYOUT
350
A88
  3
ACAD_MATERIAL
350
A2C
  3
ACAD_MLEADERSTYLE
350
A8C
  3
ACAD_MLINESTYLE
350
A85
  3
ACAD_PLOTSETTINGS
350
A87
  3
ACAD_PLOTSTYLENAME
350
A2A
  3
ACAD_SCALELIST
350
A59
  3
ACAD_TABLESTYLE
350
A8A
  3
ACAD_VISUALSTYLE
350
A45
  3
ACDB_RECOMPOSE_DATA
350
D98
  3
AcDbVariableDictionary
350
D28
  3
DWGPROPS
350
D99
  0
DICTIONARY
  5
D22
330
A7B
100
AcDbDictionary
280
     1
281
     1
  3
ADSK_XREC_LAYER_RECONCILED
360
D23
  0
DICTIONARY
  5
D24
330
A97
100
AcDbDictionary
280
     1
281
     1
  3
ADSK_XREC_LAYER_RECONCILED
360
D25
  0
DICTIONARY
  5
D26
330
A98
100
AcDbDictionary
280
     1
281
     1
  3
ADSK_XREC_LAYER_RECONCILED
360
D27
  0
DICTIONARY
  5
B90
330
A92
100
AcDbDictionary
280
     1
281
     1
  3
ACAD_SORTENTS
360
B91
  0
DICTIONARY
  5
A89
102
{ACAD_REACTORS
330
A28
102
}
330
A28
100
AcDbDictionary
281
     1
  0
DICTIONARY
  5
A29
102
{ACAD_REACTORS
330
A28
102
}
330
A28
100
AcDbDictionary
281
     1
  0
DICTIONARY
  5
A88
102
{ACAD_REACTORS
330
A28
102
}
330
A28
100
AcDbDictionary
281
     1
  3
Model
350
A95
  3
レイアウト1
350
A91
  0
DICTIONARY
  5
A2C
102
{ACAD_REACTORS
330
A28
102
}
330
A28
100
AcDbDictionary
281
     1
  3
ByBlock
350
A35
  3
ByLayer
350
A2D
  3
Global
350
A3D
  0
DICTIONARY
  5
A8C
102
{ACAD_REACTORS
330
A28
102
}
330
A28
100
AcDbDictionary
281
     1
  3
Standard
350
A8D
  0
DICTIONARY
  5
A85
102
{ACAD_REACTORS
330
A28
102
}
330
A28
100
AcDbDictionary
281
     1
  3
Standard
350
A86
  0
DICTIONARY
  5
A87
102
{ACAD_REACTORS
330
A28
102
}
330
A28
100
AcDbDictionary
281
     1
  0
ACDBDICTIONARYWDFLT
  5
A2A
102
{ACAD_REACTORS
330
A28
102
}
330
A28
100
AcDbDictionary
281
     1
  3
Normal
350
A2B
100
AcDbDictionaryWithDefault
340
A2B
  0
DICTIONARY
  5
A59
102
{ACAD_REACTORS
330
A28
102
}
330
A28
100
AcDbDictionary
281
     1
  3
A0
350
A5A
  3
A1
350
A5B
  3
A2
350
A5C
  3
A3
350
A5D
  3
A4
350
A5E
  3
A5
350
A5F
  3
A6
350
A60
  3
A7
350
A61
  3
A8
350
A62
  3
A9
350
A63
  3
B0
350
A64
  3
B1
350
A65
  3
B2
350
A66
  3
B3
350
A67
  3
B4
350
A68
  3
B5
350
A69
  3
B6
350
A6A
  3
B7
350
A6B
  3
B8
350
A6C
  3
B9
350
A6D
  3
C0
350
A6E
  3
C1
350
A6F
  3
C2
350
A70
  3
C3
350
A71
  3
C4
350
A72
  3
C5
350
A73
  3
C6
350
A74
  3
C7
350
A75
  3
C8
350
A76
  3
C9
350
A77
  3
D0
350
A78
  3
D1
350
A79
  3
D2
350
A7A
  0
DICTIONARY
  5
A8A
102
{ACAD_REACTORS
330
A28
102
}
330
A28
100
AcDbDictionary
281
     1
  3
Standard
350
A8B
  0
DICTIONARY
  5
A45
102
{ACAD_REACTORS
330
A28
102
}
330
A28
100
AcDbDictionary
281
     1
  3
2dWireframe
350
A4B
  3
3D Hidden
350
A4D
  3
3dWireframe
350
A4C
  3
Basic
350
A4A
  3
Brighten
350
A51
  3
ColorChange
350
A55
  3
Conceptual
350
A4E
  3
Dim
350
A50
  3
EdgeColorOff
350
A58
  3
Facepattern
350
A54
  3
Flat
350
A46
  3
FlatWithEdges
350
A47
  3
Gouraud
350
A48
  3
GouraudWithEdges
350
A49
  3
JitterOff
350
A56
  3
Linepattern
350
A53
  3
OverhangOff
350
A57
  3
Realistic
350
A4F
  3
Thicken
350
A52
  0
XRECORD
  5
D98
102
{ACAD_REACTORS
330
A28
102
}
330
A28
100
AcDbXrecord
280
     1
 90
        1
330
A8B
  0
DICTIONARY
  5
D28
102
{ACAD_REACTORS
330
A28
102
}
330
A28
100
AcDbDictionary
281
     1
  3
CANNOSCALE
350
D2B
  3
CMLEADERSTYLE
350
D2A
  3
CTABLESTYLE
350
D29
  3
DIMASSOC
350
D2E
  3
INDEXCTL
350
D2D
  3
SORTENTS
350
D2C
  3
XCLIPFRAME
350
D2F
  0
XRECORD
  5
D99
102
{ACAD_REACTORS
330
A28
102
}
330
A28
100
AcDbXrecord
280
     1
  1
DWGPROPS COOKIE
  2

  3

  4

  6

  7

  8
ryota.matsumura
  9

300
=
301
=
302
=
303
=
304
=
305
=
306
=
307
=
308
=
309
=
 40
0.0210337384259259
 41
2452216.479914931
 42
2457920.389943368
  1

 90
        0
  0
XRECORD
  5
D23
102
{ACAD_REACTORS
330
D22
102
}
330
D22
100
AcDbXrecord
280
     1
290
     1
  0
XRECORD
  5
D25
102
{ACAD_REACTORS
330
D24
102
}
330
D24
100
AcDbXrecord
280
     1
290
     1
  0
XRECORD
  5
D27
102
{ACAD_REACTORS
330
D26
102
}
330
D26
100
AcDbXrecord
280
     1
290
     1
  0
SORTENTSTABLE
  5
B91
102
{ACAD_REACTORS
330
B90
102
}
330
B90
100
AcDbSortentsTable
330
A92
331
850
  5
851
331
770
  5
770
331
6A0
  5
6A0
331
931
  5
932
331
861
  5
862
331
781
  5
781
331
6B1
  5
6B1
331
B92
  5
AC3
331
942
  5
943
331
872
  5
873
331
792
  5
792
331
6C2
  5
6C2
331
60B
  5
60B
331
5FA
  5
5FA
331
5E9
  5
5E9
331
953
  5
954
331
883
  5
884
331
7A3
  5
7A3
331
6D3
  5
6D3
331
61C
  5
61C
331
B9C
  5
B9D
331
964
  5
965
331
894
  5
895
331
7B4
  5
7B4
331
62D
  5
62D
331
975
  5
976
331
8A5
  5
8A6
331
7C5
  5
7C5
331
6DD
  5
6DD
331
63E
  5
63E
331
986
  5
987
331
8B6
  5
8B7
331
6EE
  5
6EE
331
64F
  5
64F
331
997
  5
998
331
7CF
  5
7CF
331
6FF
  5
6FF
331
8C0
  5
8C1
331
7E0
  5
7E0
331
8D1
  5
8D2
331
7F1
  5
7F1
331
9B2
  5
9B3
331
8E2
  5
8E3
331
802
  5
802
331
732
  5
732
331
721
  5
721
331
710
  5
710
331
5D8
  5
5D8
331
5C7
  5
5C7
331
5B6
  5
5B6
331
5A5
  5
5A5
331
594
  5
594
331
583
  5
583
331
AC3
  5
AC7
331
9C3
  5
9C4
331
8F3
  5
8F4
331
813
  5
813
331
743
  5
743
331
9D4
  5
9D5
331
904
  5
905
331
824
  5
824
331
9E5
  5
9E6
331
915
  5
916
331
835
  5
836
331
66D
  5
66D
331
9F6
  5
9F7
331
926
  5
927
331
67E
  5
67E
331
A07
  5
A08
331
75F
  5
75F
331
68F
  5
68F
331
577
  5
577
331
566
  5
566
331
555
  5
555
331
544
  5
544
331
533
  5
533
331
A08
  5
A09
331
840
  5
841
331
760
  5
760
331
851
  5
852
331
771
  5
771
331
6A1
  5
6A1
331
690
  5
690
331
932
  5
933
331
862
  5
863
331
782
  5
782
331
6B2
  5
6B2
331
943
  5
944
331
873
  5
874
331
793
  5
793
331
6C3
  5
6C3
331
60C
  5
60C
331
5FB
  5
5FB
331
5EA
  5
5EA
331
954
  5
955
331
884
  5
885
331
7A4
  5
7A4
331
6D4
  5
6D4
331
61D
  5
61D
331
B9D
  5
BA0
331
965
  5
966
331
895
  5
896
331
7B5
  5
7B5
331
62E
  5
62E
331
976
  5
977
331
8A6
  5
8A7
331
7C6
  5
7C6
331
6DE
  5
6DE
331
63F
  5
63F
331
987
  5
988
331
8B7
  5
8B8
331
6EF
  5
6EF
331
650
  5
650
331
C69
  5
C70
331
998
  5
999
331
7D0
  5
7D0
331
700
  5
700
331
BE1
  5
BE7
331
8C1
  5
8C2
331
7E1
  5
7E1
331
8D2
  5
8D3
331
7F2
  5
7F2
331
9B3
  5
9B4
331
8E3
  5
8E4
331
803
  5
803
331
733
  5
733
331
722
  5
722
331
711
  5
711
331
5D9
  5
5D9
331
5C8
  5
5C8
331
5B7
  5
5B7
331
5A6
  5
5A6
331
595
  5
595
331
584
  5
584
331
578
  5
578
331
AC4
  5
AC8
331
9C4
  5
9C5
331
8F4
  5
8F5
331
814
  5
814
331
744
  5
744
331
9D5
  5
9D6
331
905
  5
906
331
825
  5
825
331
AE6
  5
AEB
331
9E6
  5
9E7
331
916
  5
917
331
836
  5
837
331
66E
  5
66E
331
9F7
  5
9F8
331
927
  5
928
331
67F
  5
67F
331
567
  5
567
331
556
  5
556
331
545
  5
545
331
534
  5
534
331
9F8
  5
9F9
331
928
  5
929
331
750
  5
750
331
680
  5
680
331
A09
  5
A0A
331
841
  5
842
331
761
  5
761
331
852
  5
853
331
772
  5
772
331
6A2
  5
6A2
331
691
  5
691
331
933
  5
934
331
863
  5
864
331
783
  5
783
331
6B3
  5
6B3
331
944
  5
945
331
874
  5
875
331
794
  5
794
331
6C4
  5
6C4
331
60D
  5
60D
331
5FC
  5
5FC
331
5EB
  5
5EB
331
955
  5
956
331
885
  5
886
331
7A5
  5
7A5
331
6D5
  5
6D5
331
61E
  5
61E
331
966
  5
967
331
896
  5
897
331
7B6
  5
7B6
331
62F
  5
62F
331
BAF
  5
BB2
331
977
  5
978
331
8A7
  5
8A8
331
7C7
  5
7C7
331
6DF
  5
6DF
331
640
  5
640
331
988
  5
989
331
6F0
  5
6F0
331
651
  5
651
331
C6A
  5
BE2
331
999
  5
99A
331
7D1
  5
7D1
331
701
  5
701
331
BE2
  5
BE9
331
8C2
  5
8C3
331
7E2
  5
7E2
331
8D3
  5
8D4
331
7F3
  5
7F3
331
9B4
  5
9B5
331
8E4
  5
8E5
331
804
  5
804
331
734
  5
734
331
723
  5
723
331
712
  5
712
331
5DA
  5
5DA
331
5C9
  5
5C9
331
5B8
  5
5B8
331
5A7
  5
5A7
331
596
  5
596
331
585
  5
585
331
579
  5
579
331
568
  5
568
331
9C5
  5
9C6
331
8F5
  5
8F6
331
815
  5
815
331
745
  5
745
331
9D6
  5
9D7
331
906
  5
907
331
826
  5
826
331
9E7
  5
9E8
331
917
  5
918
331
837
  5
838
331
66F
  5
66F
331
557
  5
557
331
546
  5
546
331
535
  5
535
331
CA8
  5
CBA
331
9E8
  5
9E9
331
918
  5
919
331
838
  5
839
331
670
  5
670
331
9F9
  5
9FA
331
929
  5
92A
331
751
  5
751
331
681
  5
681
331
CCA
  5
CCF
331
A0A
  5
A0B
331
842
  5
843
331
762
  5
762
331
AB3
  5
AB4
331
853
  5
854
331
773
  5
773
331
6A3
  5
6A3
331
692
  5
692
331
934
  5
935
331
864
  5
865
331
784
  5
784
331
6B4
  5
6B4
331
D16
  5
D1A
331
945
  5
946
331
875
  5
876
331
795
  5
795
331
6C5
  5
6C5
331
60E
  5
60E
331
5FD
  5
5FD
331
5EC
  5
5EC
331
956
  5
957
331
886
  5
887
331
7A6
  5
7A6
331
6D6
  5
6D6
331
61F
  5
61F
331
B9F
  5
BA3
331
967
  5
968
331
897
  5
898
331
7B7
  5
7B7
331
630
  5
630
331
BB0
  5
BC2
331
978
  5
979
331
8A8
  5
8A9
331
6E0
  5
6E0
331
641
  5
641
331
989
  5
98A
331
6F1
  5
6F1
331
652
  5
652
331
C6B
  5
BE4
331
99A
  5
99B
331
7D2
  5
7D2
331
702
  5
702
331
BE3
  5
BEA
331
8C3
  5
8C4
331
7E3
  5
7E3
331
8D4
  5
8D5
331
7F4
  5
7F4
331
9B5
  5
9B6
331
8E5
  5
8E6
331
805
  5
805
331
735
  5
735
331
724
  5
724
331
713
  5
713
331
5DB
  5
5DB
331
5CA
  5
5CA
331
5B9
  5
5B9
331
5A8
  5
5A8
331
597
  5
597
331
586
  5
586
331
57A
  5
57A
331
569
  5
569
331
558
  5
558
331
AC6
  5
AC9
331
9C6
  5
9C7
331
8F6
  5
8F7
331
816
  5
816
331
746
  5
746
331
C97
  5
CAA
331
9D7
  5
9D8
331
907
  5
908
331
827
  5
827
331
547
  5
547
331
536
  5
536
331
9D8
  5
9D9
331
908
  5
909
331
828
  5
828
331
660
  5
660
331
CA9
  5
CBB
331
AE9
  5
AEC
331
9E9
  5
9EA
331
919
  5
91A
331
839
  5
83A
331
671
  5
671
331
CBA
  5
CBD
331
9FA
  5
9FB
331
92A
  5
92B
331
752
  5
752
331
682
  5
682
331
CCB
  5
CD1
331
A0B
  5
A0C
331
843
  5
844
331
763
  5
763
331
AB4
  5
AB5
331
854
  5
855
331
774
  5
774
331
6A4
  5
6A4
331
693
  5
693
331
B85
  5
B8A
331
935
  5
936
331
865
  5
866
331
785
  5
785
331
6B5
  5
6B5
331
D17
  5
D1B
331
946
  5
947
331
876
  5
877
331
796
  5
796
331
6C6
  5
6C6
331
60F
  5
60F
331
5FE
  5
5FE
331
5ED
  5
5ED
331
957
  5
958
331
887
  5
888
331
7A7
  5
7A7
331
6D7
  5
6D7
331
620
  5
620
331
BA0
  5
BA4
331
968
  5
969
331
898
  5
899
331
7B8
  5
7B8
331
631
  5
631
331
BB1
  5
BC3
331
979
  5
97A
331
8A9
  5
8AA
331
6E1
  5
6E1
331
642
  5
642
331
BC2
  5
BC5
331
98A
  5
98B
331
6F2
  5
6F2
331
653
  5
653
331
C6C
  5
C71
331
99B
  5
99C
331
7D3
  5
7D3
331
703
  5
703
331
BE4
  5
C69
331
8C4
  5
8C5
331
7E4
  5
7E4
331
8D5
  5
8D6
331
7F5
  5
7F5
331
725
  5
725
331
714
  5
714
331
5DC
  5
5DC
331
5CB
  5
5CB
331
5BA
  5
5BA
331
5A9
  5
5A9
331
598
  5
598
331
587
  5
587
331
57B
  5
57B
331
56A
  5
56A
331
559
  5
559
331
548
  5
548
331
9B6
  5
9B7
331
8E6
  5
8E7
331
806
  5
806
331
736
  5
736
331
AC7
  5
ACA
331
9C7
  5
9C8
331
8F7
  5
8F8
331
817
  5
817
331
747
  5
747
331
537
  5
537
331
526
  5
526
331
C88
  5
C8B
331
AC8
  5
AE6
331
9C8
  5
9C9
331
8F8
  5
8F9
331
818
  5
818
331
748
  5
748
331
9D9
  5
9DA
331
909
  5
90A
331
829
  5
829
331
661
  5
661
331
CAA
  5
CBC
331
AEA
  5
AED
331
9EA
  5
9EB
331
91A
  5
91B
331
83A
  5
83B
331
672
  5
672
331
CBB
  5
CBF
331
9FB
  5
9FC
331
92B
  5
92C
331
753
  5
753
331
683
  5
683
331
CCC
  5
CD2
331
A0C
  5
A0D
331
844
  5
845
331
764
  5
764
331
AB5
  5
AB6
331
855
  5
856
331
775
  5
775
331
6A5
  5
6A5
331
694
  5
694
331
B86
  5
B8B
331
936
  5
937
331
866
  5
867
331
786
  5
786
331
6B6
  5
6B6
331
B97
  5
B98
331
D18
  5
D1C
331
947
  5
948
331
877
  5
878
331
797
  5
797
331
6C7
  5
6C7
331
610
  5
610
331
5FF
  5
5FF
331
5EE
  5
5EE
331
958
  5
959
331
888
  5
889
331
7A8
  5
7A8
331
621
  5
621
331
969
  5
96A
331
899
  5
89A
331
7B9
  5
7B9
331
632
  5
632
331
BB2
  5
BC4
331
97A
  5
97B
331
8AA
  5
8AB
331
6E2
  5
6E2
331
643
  5
643
331
BC3
  5
BC6
331
98B
  5
98C
331
6F3
  5
6F3
331
654
  5
654
331
C6D
  5
C73
331
99C
  5
99D
331
7D4
  5
7D4
331
704
  5
704
331
C7E
  5
C7F
331
8C5
  5
8C6
331
7E5
  5
7E5
331
8D6
  5
8D7
331
7F6
  5
7F6
331
726
  5
726
331
715
  5
715
331
5DD
  5
5DD
331
5CC
  5
5CC
331
5BB
  5
5BB
331
5AA
  5
5AA
331
599
  5
599
331
588
  5
588
331
57C
  5
57C
331
56B
  5
56B
331
55A
  5
55A
331
549
  5
549
331
538
  5
538
331
9B7
  5
9B8
331
8E7
  5
8E8
331
807
  5
807
331
737
  5
737
331
527
  5
527
331
AB8
  5
AB9
331
9B8
  5
9B9
331
8E8
  5
8E9
331
808
  5
808
331
738
  5
738
331
C89
  5
C8C
331
AC9
  5
AE9
331
9C9
  5
9CA
331
8F9
  5
8FA
331
819
  5
819
331
749
  5
749
331
9DA
  5
9DB
331
90A
  5
90B
331
82A
  5
82A
331
662
  5
662
331
AEB
  5
AF0
331
9EB
  5
9EC
331
91B
  5
91C
331
83B
  5
83C
331
673
  5
673
331
CBC
  5
CCA
331
AFC
  5
AFF
331
9FC
  5
9FD
331
92C
  5
92D
331
754
  5
754
331
684
  5
684
331
CCD
  5
CD3
331
A0D
  5
A0E
331
845
  5
846
331
765
  5
765
331
AB6
  5
AB7
331
856
  5
857
331
776
  5
776
331
6A6
  5
6A6
331
695
  5
695
331
B87
  5
B8C
331
937
  5
938
331
867
  5
868
331
787
  5
787
331
6B7
  5
6B7
331
D19
  5
D1D
331
948
  5
949
331
878
  5
879
331
798
  5
798
331
6C8
  5
6C8
331
611
  5
611
331
600
  5
600
331
5EF
  5
5EF
331
959
  5
95A
331
889
  5
88A
331
7A9
  5
7A9
331
622
  5
622
331
BA2
  5
BA5
331
96A
  5
96B
331
89A
  5
89B
331
7BA
  5
7BA
331
633
  5
633
331
97B
  5
97C
331
8AB
  5
8AC
331
6E3
  5
6E3
331
644
  5
644
331
BC4
  5
BC7
331
98C
  5
98D
331
6F4
  5
6F4
331
655
  5
655
331
C6E
  5
C74
331
99D
  5
99E
331
7D5
  5
7D5
331
705
  5
705
331
BE6
  5
C6A
331
C7F
  5
C81
331
8C6
  5
8C7
331
7E6
  5
7E6
331
8D7
  5
8D8
331
7F7
  5
7F7
331
727
  5
727
331
716
  5
716
331
5DE
  5
5DE
331
5CD
  5
5CD
331
5BC
  5
5BC
331
5AB
  5
5AB
331
59A
  5
59A
331
589
  5
589
331
57D
  5
57D
331
56C
  5
56C
331
55B
  5
55B
331
54A
  5
54A
331
539
  5
539
331
528
  5
528
331
C80
  5
C83
331
9A8
  5
9A9
331
8D8
  5
8D9
331
7F8
  5
7F8
331
728
  5
728
331
AB9
  5
ABA
331
9B9
  5
9BA
331
8E9
  5
8EA
331
809
  5
809
331
739
  5
739
331
C8A
  5
C8D
331
ACA
  5
AEA
331
9CA
  5
9CB
331
8FA
  5
8FB
331
81A
  5
81A
331
74A
  5
74A
331
9DB
  5
9DC
331
90B
  5
90C
331
82B
  5
82B
331
663
  5
663
331
AEC
  5
AFC
331
9EC
  5
9ED
331
91C
  5
91D
331
83C
  5
83D
331
674
  5
674
331
CBD
  5
CCB
331
AFD
  5
B00
331
9FD
  5
9FE
331
92D
  5
92E
331
755
  5
755
331
685
  5
685
331
A0E
  5
A0F
331
846
  5
847
331
766
  5
766
331
AB7
  5
AB8
331
857
  5
858
331
777
  5
777
331
6A7
  5
6A7
331
696
  5
696
331
938
  5
939
331
868
  5
869
331
788
  5
788
331
6B8
  5
6B8
331
D1A
  5
CBE
331
949
  5
94A
331
879
  5
87A
331
799
  5
799
331
6C9
  5
6C9
331
612
  5
612
331
601
  5
601
331
5F0
  5
5F0
331
95A
  5
95B
331
88A
  5
88B
331
7AA
  5
7AA
331
623
  5
623
331
BA3
  5
BA6
331
96B
  5
96C
331
89B
  5
89C
331
7BB
  5
7BB
331
634
  5
634
331
97C
  5
97D
331
8AC
  5
8AD
331
6E4
  5
6E4
331
645
  5
645
331
BC5
  5
BC8
331
98D
  5
98E
331
6F5
  5
6F5
331
656
  5
656
331
C6F
  5
C7E
331
99E
  5
99F
331
7D6
  5
7D6
331
706
  5
706
331
BE7
  5
C6D
331
8C7
  5
8C8
331
7E7
  5
7E7
331
717
  5
717
331
5DF
  5
5DF
331
5CE
  5
5CE
331
5BD
  5
5BD
331
5AC
  5
5AC
331
59B
  5
59B
331
58A
  5
58A
331
57E
  5
57E
331
56D
  5
56D
331
55C
  5
55C
331
54B
  5
54B
331
53A
  5
53A
331
529
  5
529
331
C70
  5
BA2
331
BE8
  5
C6E
331
C81
  5
C84
331
8C8
  5
8C9
331
7E8
  5
7E8
331
9A9
  5
9AA
331
8D9
  5
8DA
331
7F9
  5
7F9
331
729
  5
729
331
718
  5
718
331
5E0
  5
5E0
331
ABA
  5
ABB
331
9BA
  5
9BB
331
8EA
  5
8EB
331
80A
  5
80A
331
73A
  5
73A
331
C8B
  5
C8E
331
9CB
  5
9CC
331
8FB
  5
8FC
331
81B
  5
81B
331
74B
  5
74B
331
9DC
  5
9DD
331
90C
  5
90D
331
82C
  5
82C
331
664
  5
664
331
AED
  5
AFD
331
9ED
  5
9EE
331
91D
  5
91E
331
83D
  5
83E
331
675
  5
675
331
CBE
  5
CCC
331
AFE
  5
B08
331
9FE
  5
9FF
331
92E
  5
92F
331
756
  5
756
331
686
  5
686
331
A0F
  5
AB3
331
847
  5
848
331
767
  5
767
331
858
  5
859
331
778
  5
778
331
6A8
  5
6A8
331
697
  5
697
331
939
  5
93A
331
869
  5
86A
331
789
  5
789
331
6B9
  5
6B9
331
D1B
  5
CC0
331
94A
  5
94B
331
87A
  5
87B
331
79A
  5
79A
331
6CA
  5
6CA
331
613
  5
613
331
602
  5
602
331
5F1
  5
5F1
331
95B
  5
95C
331
88B
  5
88C
331
7AB
  5
7AB
331
624
  5
624
331
BA4
  5
BA7
331
96C
  5
96D
331
89C
  5
89D
331
7BC
  5
7BC
331
635
  5
635
331
97D
  5
97E
331
8AD
  5
8AE
331
6E5
  5
6E5
331
646
  5
646
331
BC6
  5
BE1
331
98E
  5
98F
331
6F6
  5
6F6
331
657
  5
657
331
99F
  5
9A0
331
7D7
  5
7D7
331
707
  5
707
331
5CF
  5
5CF
331
5BE
  5
5BE
331
5AD
  5
5AD
331
59C
  5
59C
331
58B
  5
58B
331
57F
  5
57F
331
56E
  5
56E
331
55D
  5
55D
331
54C
  5
54C
331
53B
  5
53B
331
52A
  5
52A
331
658
  5
658
331
C71
  5
B9F
331
9A0
  5
9A1
331
8B8
  5
8B9
331
7D8
  5
7D8
331
708
  5
708
331
C82
  5
C85
331
8C9
  5
8CA
331
7E9
  5
7E9
331
9AA
  5
9AB
331
8DA
  5
8DB
331
7FA
  5
7FA
331
72A
  5
72A
331
719
  5
719
331
5E1
  5
5E1
331
5D0
  5
5D0
331
ABB
  5
ABD
331
9BB
  5
9BC
331
8EB
  5
8EC
331
80B
  5
80B
331
73B
  5
73B
331
C8C
  5
C8F
331
9CC
  5
9CD
331
8FC
  5
8FD
331
81C
  5
81C
331
74C
  5
74C
331
9DD
  5
9DE
331
90D
  5
90E
331
82D
  5
82D
331
665
  5
665
331
9EE
  5
9EF
331
91E
  5
91F
331
83E
  5
83F
331
676
  5
676
331
CBF
  5
CCD
331
AFF
  5
B46
331
9FF
  5
A00
331
92F
  5
930
331
757
  5
757
331
848
  5
849
331
768
  5
768
331
859
  5
85A
331
779
  5
779
331
6A9
  5
6A9
331
698
  5
698
331
687
  5
687
331
B8A
  5
B8D
331
93A
  5
93B
331
86A
  5
86B
331
78A
  5
78A
331
6BA
  5
6BA
331
D1C
  5
D1E
331
94B
  5
94C
331
87B
  5
87C
331
79B
  5
79B
331
6CB
  5
6CB
331
614
  5
614
331
603
  5
603
331
5F2
  5
5F2
331
95C
  5
95D
331
88C
  5
88D
331
7AC
  5
7AC
331
625
  5
625
331
BA5
  5
BA8
331
96D
  5
96E
331
89D
  5
89E
331
7BD
  5
7BD
331
636
  5
636
331
97E
  5
97F
331
8AE
  5
8AF
331
6E6
  5
6E6
331
647
  5
647
331
BC7
  5
BE3
331
98F
  5
990
331
6F7
  5
6F7
331
5BF
  5
5BF
331
5AE
  5
5AE
331
59D
  5
59D
331
58C
  5
58C
331
56F
  5
56F
331
55E
  5
55E
331
54D
  5
54D
331
53C
  5
53C
331
52B
  5
52B
331
648
  5
648
331
BC8
  5
BE6
331
990
  5
991
331
7C8
  5
7C8
331
6F8
  5
6F8
331
659
  5
659
331
C72
  5
C75
331
9A1
  5
9A2
331
8B9
  5
8BA
331
7D9
  5
7D9
331
709
  5
709
331
C83
  5
C86
331
8CA
  5
8CB
331
7EA
  5
7EA
331
9AB
  5
9AC
331
8DB
  5
8DC
331
7FB
  5
7FB
331
72B
  5
72B
331
71A
  5
71A
331
5E2
  5
5E2
331
5D1
  5
5D1
331
5C0
  5
5C0
331
9BC
  5
9BD
331
8EC
  5
8ED
331
80C
  5
80C
331
73C
  5
73C
331
C8D
  5
C90
331
9CD
  5
9CE
331
8FD
  5
8FE
331
81D
  5
81D
331
74D
  5
74D
331
9DE
  5
9DF
331
90E
  5
90F
331
82E
  5
82E
331
666
  5
666
331
9EF
  5
9F0
331
91F
  5
920
331
83F
  5
840
331
677
  5
677
331
CC0
  5
CCE
331
B00
  5
B87
331
A00
  5
A01
331
758
  5
758
331
849
  5
84A
331
769
  5
769
331
85A
  5
85B
331
77A
  5
77A
331
6AA
  5
6AA
331
699
  5
699
331
688
  5
688
331
B8B
  5
B8E
331
93B
  5
93C
331
86B
  5
86C
331
78B
  5
78B
331
6BB
  5
6BB
331
D1D
  5
D1F
331
94C
  5
94D
331
87C
  5
87D
331
79C
  5
79C
331
6CC
  5
6CC
331
615
  5
615
331
604
  5
604
331
5F3
  5
5F3
331
95D
  5
95E
331
88D
  5
88E
331
7AD
  5
7AD
331
626
  5
626
331
BA6
  5
BA9
331
96E
  5
96F
331
89E
  5
89F
331
7BE
  5
7BE
331
637
  5
637
331
97F
  5
980
331
8AF
  5
8B0
331
6E7
  5
6E7
331
5AF
  5
5AF
331
59E
  5
59E
331
58D
  5
58D
331
570
  5
570
331
55F
  5
55F
331
54E
  5
54E
331
53D
  5
53D
331
52C
  5
52C
331
638
  5
638
331
980
  5
981
331
8B0
  5
8B1
331
6E8
  5
6E8
331
649
  5
649
331
991
  5
992
331
7C9
  5
7C9
331
6F9
  5
6F9
331
65A
  5
65A
331
C73
  5
C72
331
9A2
  5
9A3
331
8BA
  5
8BB
331
7DA
  5
7DA
331
70A
  5
70A
331
C84
  5
C87
331
8CB
  5
8CC
331
7EB
  5
7EB
331
9AC
  5
9AD
331
8DC
  5
8DD
331
7FC
  5
7FC
331
72C
  5
72C
331
71B
  5
71B
331
5E3
  5
5E3
331
5D2
  5
5D2
331
5C1
  5
5C1
331
5B0
  5
5B0
331
ABD
  5
ABE
331
9BD
  5
9BE
331
8ED
  5
8EE
331
80D
  5
80D
331
73D
  5
73D
331
C8E
  5
C97
331
9CE
  5
9CF
331
8FE
  5
8FF
331
81E
  5
81E
331
74E
  5
74E
331
9DF
  5
9E0
331
90F
  5
910
331
82F
  5
830
331
667
  5
667
331
AF0
  5
AFE
331
9F0
  5
9F1
331
920
  5
921
331
678
  5
678
331
A01
  5
A02
331
759
  5
759
331
84A
  5
84B
331
76A
  5
76A
331
85B
  5
85C
331
77B
  5
77B
331
6AB
  5
6AB
331
69A
  5
69A
331
689
  5
689
331
B8C
  5
B8F
331
93C
  5
93D
331
86C
  5
86D
331
78C
  5
78C
331
6BC
  5
6BC
331
D1E
  5
D20
331
94D
  5
94E
331
87D
  5
87E
331
79D
  5
79D
331
6CD
  5
6CD
331
616
  5
616
331
605
  5
605
331
5F4
  5
5F4
331
95E
  5
95F
331
88E
  5
88F
331
7AE
  5
7AE
331
627
  5
627
331
BA7
  5
BAA
331
96F
  5
970
331
89F
  5
8A0
331
7BF
  5
7BF
331
59F
  5
59F
331
58E
  5
58E
331
571
  5
571
331
560
  5
560
331
54F
  5
54F
331
53E
  5
53E
331
52D
  5
52D
331
628
  5
628
331
BA8
  5
BAB
331
970
  5
971
331
8A0
  5
8A1
331
7C0
  5
7C0
331
6D8
  5
6D8
331
639
  5
639
331
981
  5
982
331
8B1
  5
8B2
331
6E9
  5
6E9
331
64A
  5
64A
331
992
  5
993
331
7CA
  5
7CA
331
6FA
  5
6FA
331
65B
  5
65B
331
C74
  5
C6B
331
9A3
  5
9A4
331
8BB
  5
8BC
331
7DB
  5
7DB
331
70B
  5
70B
331
C85
  5
C88
331
8CC
  5
8CD
331
7EC
  5
7EC
331
9AD
  5
9AE
331
8DD
  5
8DE
331
7FD
  5
7FD
331
72D
  5
72D
331
71C
  5
71C
331
5E4
  5
5E4
331
5D3
  5
5D3
331
5C2
  5
5C2
331
5B1
  5
5B1
331
5A0
  5
5A0
331
ABE
  5
ABF
331
9BE
  5
9BF
331
8EE
  5
8EF
331
80E
  5
80E
331
73E
  5
73E
331
C8F
  5
CA8
331
9CF
  5
9D0
331
8FF
  5
900
331
81F
  5
81F
331
74F
  5
74F
331
9E0
  5
9E1
331
910
  5
911
331
830
  5
831
331
668
  5
668
331
9F1
  5
9F2
331
921
  5
922
331
679
  5
679
331
A02
  5
A03
331
75A
  5
75A
331
84B
  5
84C
331
76B
  5
76B
331
85C
  5
85D
331
77C
  5
77C
331
6AC
  5
6AC
331
69B
  5
69B
331
68A
  5
68A
331
B8D
  5
B92
331
93D
  5
93E
331
86D
  5
86E
331
78D
  5
78D
331
6BD
  5
6BD
331
D1F
  5
D21
331
94E
  5
94F
331
87E
  5
87F
331
79E
  5
79E
331
6CE
  5
6CE
331
617
  5
617
331
606
  5
606
331
5F5
  5
5F5
331
95F
  5
960
331
88F
  5
890
331
7AF
  5
7AF
331
58F
  5
58F
331
572
  5
572
331
561
  5
561
331
550
  5
550
331
53F
  5
53F
331
52E
  5
52E
331
D20
  5
C80
331
618
  5
618
331
B98
  5
B99
331
960
  5
961
331
890
  5
891
331
7B0
  5
7B0
331
629
  5
629
331
BA9
  5
BAF
331
971
  5
972
331
8A1
  5
8A2
331
7C1
  5
7C1
331
6D9
  5
6D9
331
63A
  5
63A
331
982
  5
983
331
8B2
  5
8B3
331
6EA
  5
6EA
331
64B
  5
64B
331
993
  5
994
331
7CB
  5
7CB
331
6FB
  5
6FB
331
65C
  5
65C
331
C75
  5
C6F
331
9A4
  5
9A5
331
8BC
  5
8BD
331
7DC
  5
7DC
331
70C
  5
70C
331
C86
  5
C89
331
8CD
  5
8CE
331
7ED
  5
7ED
331
9AE
  5
9AF
331
8DE
  5
8DF
331
7FE
  5
7FE
331
72E
  5
72E
331
71D
  5
71D
331
5E5
  5
5E5
331
5D4
  5
5D4
331
5C3
  5
5C3
331
5B2
  5
5B2
331
5A1
  5
5A1
331
590
  5
590
331
ABF
  5
AC0
331
9BF
  5
9C0
331
8EF
  5
8F0
331
80F
  5
80F
331
73F
  5
73F
331
C90
  5
CA9
331
9D0
  5
9D1
331
900
  5
901
331
820
  5
820
331
9E1
  5
9E2
331
911
  5
912
331
831
  5
832
331
669
  5
669
331
9F2
  5
9F3
331
922
  5
923
331
67A
  5
67A
331
A03
  5
A04
331
75B
  5
75B
331
84C
  5
84D
331
76C
  5
76C
331
85D
  5
85E
331
77D
  5
77D
331
6AD
  5
6AD
331
69C
  5
69C
331
68B
  5
68B
331
B8E
  5
B97
331
93E
  5
93F
331
86E
  5
86F
331
78E
  5
78E
331
6BE
  5
6BE
331
94F
  5
950
331
87F
  5
880
331
79F
  5
79F
331
6CF
  5
6CF
331
607
  5
607
331
5F6
  5
5F6
331
573
  5
573
331
562
  5
562
331
551
  5
551
331
540
  5
540
331
52F
  5
52F
331
608
  5
608
331
D21
  5
C82
331
950
  5
951
331
880
  5
881
331
7A0
  5
7A0
331
6D0
  5
6D0
331
619
  5
619
331
B99
  5
B9A
331
961
  5
962
331
891
  5
892
331
7B1
  5
7B1
331
62A
  5
62A
331
BAA
  5
BB0
331
972
  5
973
331
8A2
  5
8A3
331
7C2
  5
7C2
331
6DA
  5
6DA
331
63B
  5
63B
331
983
  5
984
331
8B3
  5
8B4
331
6EB
  5
6EB
331
64C
  5
64C
331
994
  5
995
331
7CC
  5
7CC
331
6FC
  5
6FC
331
65D
  5
65D
331
9A5
  5
9A6
331
8BD
  5
8BE
331
7DD
  5
7DD
331
70D
  5
70D
331
C87
  5
C8A
331
8CE
  5
8CF
331
7EE
  5
7EE
331
9AF
  5
9B0
331
8DF
  5
8E0
331
7FF
  5
7FF
331
72F
  5
72F
331
71E
  5
71E
331
5E6
  5
5E6
331
5D5
  5
5D5
331
5C4
  5
5C4
331
5B3
  5
5B3
331
5A2
  5
5A2
331
591
  5
591
331
580
  5
580
331
AC0
  5
AC2
331
9C0
  5
9C1
331
8F0
  5
8F1
331
810
  5
810
331
740
  5
740
331
9D1
  5
9D2
331
901
  5
902
331
821
  5
821
331
9E2
  5
9E3
331
912
  5
913
331
832
  5
833
331
66A
  5
66A
331
9F3
  5
9F4
331
923
  5
924
331
67B
  5
67B
331
A04
  5
A05
331
75C
  5
75C
331
84D
  5
84E
331
76D
  5
76D
331
85E
  5
85F
331
77E
  5
77E
331
6AE
  5
6AE
331
69D
  5
69D
331
68C
  5
68C
331
B8F
  5
AC1
331
93F
  5
940
331
86F
  5
870
331
78F
  5
78F
331
6BF
  5
6BF
331
5F7
  5
5F7
331
574
  5
574
331
563
  5
563
331
552
  5
552
331
541
  5
541
331
530
  5
530
331
940
  5
941
331
870
  5
871
331
790
  5
790
331
6C0
  5
6C0
331
609
  5
609
331
5F8
  5
5F8
331
951
  5
952
331
881
  5
882
331
7A1
  5
7A1
331
6D1
  5
6D1
331
61A
  5
61A
331
B9A
  5
B9B
331
962
  5
963
331
892
  5
893
331
7B2
  5
7B2
331
62B
  5
62B
331
BAB
  5
BB1
331
973
  5
974
331
8A3
  5
8A4
331
7C3
  5
7C3
331
6DB
  5
6DB
331
63C
  5
63C
331
984
  5
985
331
8B4
  5
8B5
331
6EC
  5
6EC
331
64D
  5
64D
331
995
  5
996
331
7CD
  5
7CD
331
6FD
  5
6FD
331
65E
  5
65E
331
9A6
  5
9A7
331
8BE
  5
8BF
331
7DE
  5
7DE
331
70E
  5
70E
331
8CF
  5
8D0
331
7EF
  5
7EF
331
9B0
  5
9B1
331
8E0
  5
8E1
331
800
  5
800
331
730
  5
730
331
71F
  5
71F
331
5E7
  5
5E7
331
5D6
  5
5D6
331
5C5
  5
5C5
331
5B4
  5
5B4
331
5A3
  5
5A3
331
592
  5
592
331
581
  5
581
331
AC1
  5
AC4
331
9C1
  5
9C2
331
8F1
  5
8F2
331
811
  5
811
331
741
  5
741
331
9D2
  5
9D3
331
902
  5
903
331
822
  5
822
331
9E3
  5
9E4
331
913
  5
914
331
833
  5
834
331
66B
  5
66B
331
9F4
  5
9F5
331
924
  5
925
331
67C
  5
67C
331
A05
  5
A06
331
75D
  5
75D
331
84E
  5
84F
331
76E
  5
76E
331
85F
  5
860
331
77F
  5
77F
331
6AF
  5
6AF
331
69E
  5
69E
331
68D
  5
68D
331
575
  5
575
331
564
  5
564
331
553
  5
553
331
542
  5
542
331
531
  5
531
331
930
  5
931
331
860
  5
861
331
780
  5
780
331
6B0
  5
6B0
331
941
  5
942
331
871
  5
872
331
791
  5
791
331
6C1
  5
6C1
331
60A
  5
60A
331
5F9
  5
5F9
331
5E8
  5
5E8
331
952
  5
953
331
882
  5
883
331
7A2
  5
7A2
331
6D2
  5
6D2
331
61B
  5
61B
331
B9B
  5
B9C
331
963
  5
964
331
893
  5
894
331
7B3
  5
7B3
331
62C
  5
62C
331
974
  5
975
331
8A4
  5
8A5
331
7C4
  5
7C4
331
6DC
  5
6DC
331
63D
  5
63D
331
985
  5
986
331
8B5
  5
8B6
331
6ED
  5
6ED
331
64E
  5
64E
331
996
  5
997
331
7CE
  5
7CE
331
6FE
  5
6FE
331
65F
  5
65F
331
9A7
  5
9A8
331
8BF
  5
8C0
331
7DF
  5
7DF
331
8D0
  5
8D1
331
7F0
  5
7F0
331
9B1
  5
9B2
331
8E1
  5
8E2
331
801
  5
801
331
731
  5
731
331
720
  5
720
331
70F
  5
70F
331
5D7
  5
5D7
331
5C6
  5
5C6
331
5B5
  5
5B5
331
5A4
  5
5A4
331
593
  5
593
331
582
  5
582
331
AC2
  5
AC6
331
9C2
  5
9C3
331
8F2
  5
8F3
331
812
  5
812
331
742
  5
742
331
9D3
  5
9D4
331
903
  5
904
331
823
  5
823
331
9E4
  5
9E5
331
914
  5
915
331
834
  5
835
331
66C
  5
66C
331
9F5
  5
9F6
331
925
  5
926
331
67D
  5
67D
331
A06
  5
A07
331
75E
  5
75E
331
84F
  5
850
331
76F
  5
76F
331
69F
  5
69F
331
68E
  5
68E
331
576
  5
576
331
565
  5
565
331
554
  5
554
331
543
  5
543
331
532
  5
532
  0
LAYOUT
  5
A95
102
{ACAD_XDICTIONARY
360
DC7
102
}
102
{ACAD_REACTORS
330
A88
102
}
330
A88
100
AcDbPlotSettings
  1

  2
RICOH IPSiO SP C710e
  4

  6

 40
0.0
 41
0.0
 42
0.0
 43
0.0
 44
0.0
 45
0.0
 46
0.0
 47
0.0
 48
0.0
 49
0.0
140
0.0
141
0.0
142
1.0
143
1.0
 70
  1712
 72
     0
 73
     0
 74
     0
  7

 75
     0
147
1.0
148
0.0
149
0.0
100
AcDbLayout
  1
Model
 70
     1
 71
     0
 10
0.0
 20
0.0
 11
12.0
 21
9.0
 12
0.0
 22
0.0
 32
0.0
 14
0.0
 24
0.0
 34
0.0
 15
0.0
 25
0.0
 35
0.0
146
0.0
 13
0.0
 23
0.0
 33
0.0
 16
1.0
 26
0.0
 36
0.0
 17
0.0
 27
1.0
 37
0.0
 76
     0
330
A92
331
A96
  0
LAYOUT
  5
A91
102
{ACAD_XDICTIONARY
360
DC5
102
}
102
{ACAD_REACTORS
330
A88
102
}
330
A88
100
AcDbPlotSettings
  1

  2
RICOH IPSiO SP C710e
  4

  6

 40
0.0
 41
0.0
 42
0.0
 43
0.0
 44
0.0
 45
0.0
 46
0.0
 47
0.0
 48
0.0
 49
0.0
140
0.0
141
0.0
142
1.0
143
1.0
 70
   688
 72
     0
 73
     0
 74
     5
  7

 75
    16
147
1.0
148
0.0
149
0.0
100
AcDbLayout
  1
レイアウト1
 70
     1
 71
     1
 10
0.0
 20
0.0
 11
420.0
 21
297.0
 12
0.0
 22
0.0
 32
0.0
 14
1.000000000000000E+20
 24
1.000000000000000E+20
 34
1.000000000000000E+20
 15
-1.000000000000000E+20
 25
-1.000000000000000E+20
 35
-1.000000000000000E+20
146
0.0
 13
0.0
 23
0.0
 33
0.0
 16
1.0
 26
0.0
 36
0.0
 17
0.0
 27
1.0
 37
0.0
 76
     0
330
A8E
  0
MATERIAL
  5
A35
102
{ACAD_XDICTIONARY
360
A36
102
}
102
{ACAD_REACTORS
330
A2C
102
}
330
A2C
100
AcDbMaterial
  1
ByBlock
 72
     0
 43
0.0208333333333333
 43
0.0
 43
0.0
 43
0.0
 43
0.0
 43
0.0208333333333333
 43
0.0
 43
0.0
 43
0.0
 43
0.0
 43
1.0
 43
0.0
 43
0.0
 43
0.0
 43
0.0
 43
1.0
 77
     0
 47
0.0208333333333333
 47
0.0
 47
0.0
 47
0.0
 47
0.0
 47
0.0208333333333333
 47
0.0
 47
0.0
 47
0.0
 47
0.0
 47
1.0
 47
0.0
 47
0.0
 47
0.0
 47
0.0
 47
1.0
171
     0
 49
0.0208333333333333
 49
0.0
 49
0.0
 49
0.0
 49
0.0
 49
0.0208333333333333
 49
0.0
 49
0.0
 49
0.0
 49
0.0
 49
1.0
 49
0.0
 49
0.0
 49
0.0
 49
0.0
 49
1.0
175
     0
142
0.0208333333333333
142
0.0
142
0.0
142
0.0
142
0.0
142
0.0208333333333333
142
0.0
142
0.0
142
0.0
142
0.0
142
1.0
142
0.0
142
0.0
142
0.0
142
0.0
142
1.0
179
     0
144
0.0208333333333333
144
0.0
144
0.0
144
0.0
144
0.0
144
0.0208333333333333
144
0.0
144
0.0
144
0.0
144
0.0
144
1.0
144
0.0
144
0.0
144
0.0
144
0.0
144
1.0
147
0.0208333333333333
147
0.0
147
0.0
147
0.0
147
0.0
147
0.0208333333333333
147
0.0
147
0.0
147
0.0
147
0.0
147
1.0
147
0.0
147
0.0
147
0.0
147
0.0
147
1.0
  0
MATERIAL
  5
A2D
102
{ACAD_XDICTIONARY
360
A2E
102
}
102
{ACAD_REACTORS
330
A2C
102
}
330
A2C
100
AcDbMaterial
  1
ByLayer
 72
     0
 43
0.0208333333333333
 43
0.0
 43
0.0
 43
0.0
 43
0.0
 43
0.0208333333333333
 43
0.0
 43
0.0
 43
0.0
 43
0.0
 43
1.0
 43
0.0
 43
0.0
 43
0.0
 43
0.0
 43
1.0
 77
     0
 47
0.0208333333333333
 47
0.0
 47
0.0
 47
0.0
 47
0.0
 47
0.0208333333333333
 47
0.0
 47
0.0
 47
0.0
 47
0.0
 47
1.0
 47
0.0
 47
0.0
 47
0.0
 47
0.0
 47
1.0
171
     0
 49
0.0208333333333333
 49
0.0
 49
0.0
 49
0.0
 49
0.0
 49
0.0208333333333333
 49
0.0
 49
0.0
 49
0.0
 49
0.0
 49
1.0
 49
0.0
 49
0.0
 49
0.0
 49
0.0
 49
1.0
175
     0
142
0.0208333333333333
142
0.0
142
0.0
142
0.0
142
0.0
142
0.0208333333333333
142
0.0
142
0.0
142
0.0
142
0.0
142
1.0
142
0.0
142
0.0
142
0.0
142
0.0
142
1.0
179
     0
144
0.0208333333333333
144
0.0
144
0.0
144
0.0
144
0.0
144
0.0208333333333333
144
0.0
144
0.0
144
0.0
144
0.0
144
1.0
144
0.0
144
0.0
144
0.0
144
0.0
144
1.0
147
0.0208333333333333
147
0.0
147
0.0
147
0.0
147
0.0
147
0.0208333333333333
147
0.0
147
0.0
147
0.0
147
0.0
147
1.0
147
0.0
147
0.0
147
0.0
147
0.0
147
1.0
  0
MATERIAL
  5
A3D
102
{ACAD_XDICTIONARY
360
A3E
102
}
102
{ACAD_REACTORS
330
A2C
102
}
330
A2C
100
AcDbMaterial
  1
Global
 72
     0
 43
0.0208333333333333
 43
0.0
 43
0.0
 43
0.0
 43
0.0
 43
0.0208333333333333
 43
0.0
 43
0.0
 43
0.0
 43
0.0
 43
1.0
 43
0.0
 43
0.0
 43
0.0
 43
0.0
 43
1.0
 77
     0
 47
0.0208333333333333
 47
0.0
 47
0.0
 47
0.0
 47
0.0
 47
0.0208333333333333
 47
0.0
 47
0.0
 47
0.0
 47
0.0
 47
1.0
 47
0.0
 47
0.0
 47
0.0
 47
0.0
 47
1.0
171
     0
 49
0.0208333333333333
 49
0.0
 49
0.0
 49
0.0
 49
0.0
 49
0.0208333333333333
 49
0.0
 49
0.0
 49
0.0
 49
0.0
 49
1.0
 49
0.0
 49
0.0
 49
0.0
 49
0.0
 49
1.0
175
     0
142
0.0208333333333333
142
0.0
142
0.0
142
0.0
142
0.0
142
0.0208333333333333
142
0.0
142
0.0
142
0.0
142
0.0
142
1.0
142
0.0
142
0.0
142
0.0
142
0.0
142
1.0
179
     0
144
0.0208333333333333
144
0.0
144
0.0
144
0.0
144
0.0
144
0.0208333333333333
144
0.0
144
0.0
144
0.0
144
0.0
144
1.0
144
0.0
144
0.0
144
0.0
144
0.0
144
1.0
147
0.0208333333333333
147
0.0
147
0.0
147
0.0
147
0.0
147
0.0208333333333333
147
0.0
147
0.0
147
0.0
147
0.0
147
1.0
147
0.0
147
0.0
147
0.0
147
0.0
147
1.0
  0
MLEADERSTYLE
  5
A8D
102
{ACAD_REACTORS
330
A8C
102
}
330
A8C
100
AcDbMLeaderStyle
170
     2
171
     1
172
     0
 90
        2
 40
0.0
 41
0.0
173
     1
 91
-1056964608
340
A81
 92
       -2
290
     1
 42
0.09
291
     1
 43
0.36
  3
Standard
 44
0.18
300

342
A7C
174
     1
178
     6
175
     1
176
     0
 93
-1056964608
 45
0.18
292
     0
297
     0
 46
0.18
 94
-1056964608
 47
1.0
 49
1.0
140
1.0
293
     1
141
0.0
294
     1
177
     0
142
1.0
295
     0
296
     0
143
0.125
1001
ACAD_MLEADERVER
1070
     2
  0
MLINESTYLE
  5
A86
102
{ACAD_REACTORS
330
A85
102
}
330
A85
100
AcDbMlineStyle
  2
STANDARD
 70
     0
  3

 62
   256
 51
90.0
 52
90.0
 71
     2
 49
0.5
 62
   256
  6
BYLAYER
 49
-0.5
 62
   256
  6
BYLAYER
  0
ACDBPLACEHOLDER
  5
A2B
102
{ACAD_REACTORS
330
A2A
102
}
330
A2A
  0
SCALE
  5
A5A
102
{ACAD_REACTORS
330
A59
102
}
330
A59
100
AcDbScale
 70
     0
300
1:1
140
1.0
141
1.0
290
     1
  0
SCALE
  5
A5B
102
{ACAD_REACTORS
330
A59
102
}
330
A59
100
AcDbScale
 70
     0
300
1:2
140
1.0
141
2.0
290
     0
  0
SCALE
  5
A5C
102
{ACAD_REACTORS
330
A59
102
}
330
A59
100
AcDbScale
 70
     0
300
1:4
140
1.0
141
4.0
290
     0
  0
SCALE
  5
A5D
102
{ACAD_REACTORS
330
A59
102
}
330
A59
100
AcDbScale
 70
     0
300
1:5
140
1.0
141
5.0
290
     0
  0
SCALE
  5
A5E
102
{ACAD_REACTORS
330
A59
102
}
330
A59
100
AcDbScale
 70
     0
300
1:8
140
1.0
141
8.0
290
     0
  0
SCALE
  5
A5F
102
{ACAD_REACTORS
330
A59
102
}
330
A59
100
AcDbScale
 70
     0
300
1:10
140
1.0
141
10.0
290
     0
  0
SCALE
  5
A60
102
{ACAD_REACTORS
330
A59
102
}
330
A59
100
AcDbScale
 70
     0
300
1:16
140
1.0
141
16.0
290
     0
  0
SCALE
  5
A61
102
{ACAD_REACTORS
330
A59
102
}
330
A59
100
AcDbScale
 70
     0
300
1:20
140
1.0
141
20.0
290
     0
  0
SCALE
  5
A62
102
{ACAD_REACTORS
330
A59
102
}
330
A59
100
AcDbScale
 70
     0
300
1:30
140
1.0
141
30.0
290
     0
  0
SCALE
  5
A63
102
{ACAD_REACTORS
330
A59
102
}
330
A59
100
AcDbScale
 70
     0
300
1:40
140
1.0
141
40.0
290
     0
  0
SCALE
  5
A64
102
{ACAD_REACTORS
330
A59
102
}
330
A59
100
AcDbScale
 70
     0
300
1:50
140
1.0
141
50.0
290
     0
  0
SCALE
  5
A65
102
{ACAD_REACTORS
330
A59
102
}
330
A59
100
AcDbScale
 70
     0
300
1:100
140
1.0
141
100.0
290
     0
  0
SCALE
  5
A66
102
{ACAD_REACTORS
330
A59
102
}
330
A59
100
AcDbScale
 70
     0
300
2:1
140
2.0
141
1.0
290
     0
  0
SCALE
  5
A67
102
{ACAD_REACTORS
330
A59
102
}
330
A59
100
AcDbScale
 70
     0
300
4:1
140
4.0
141
1.0
290
     0
  0
SCALE
  5
A68
102
{ACAD_REACTORS
330
A59
102
}
330
A59
100
AcDbScale
 70
     0
300
8:1
140
8.0
141
1.0
290
     0
  0
SCALE
  5
A69
102
{ACAD_REACTORS
330
A59
102
}
330
A59
100
AcDbScale
 70
     0
300
10:1
140
10.0
141
1.0
290
     0
  0
SCALE
  5
A6A
102
{ACAD_REACTORS
330
A59
102
}
330
A59
100
AcDbScale
 70
     0
300
100:1
140
100.0
141
1.0
290
     0
  0
SCALE
  5
A6B
102
{ACAD_REACTORS
330
A59
102
}
330
A59
100
AcDbScale
 70
     0
300
1/128" = 1'-0"
140
0.0078125
141
12.0
290
     0
  0
SCALE
  5
A6C
102
{ACAD_REACTORS
330
A59
102
}
330
A59
100
AcDbScale
 70
     0
300
1/64" = 1'-0"
140
0.015625
141
12.0
290
     0
  0
SCALE
  5
A6D
102
{ACAD_REACTORS
330
A59
102
}
330
A59
100
AcDbScale
 70
     0
300
1/32" = 1'-0"
140
0.03125
141
12.0
290
     0
  0
SCALE
  5
A6E
102
{ACAD_REACTORS
330
A59
102
}
330
A59
100
AcDbScale
 70
     0
300
1/16" = 1'-0"
140
0.0625
141
12.0
290
     0
  0
SCALE
  5
A6F
102
{ACAD_REACTORS
330
A59
102
}
330
A59
100
AcDbScale
 70
     0
300
3/32" = 1'-0"
140
0.09375
141
12.0
290
     0
  0
SCALE
  5
A70
102
{ACAD_REACTORS
330
A59
102
}
330
A59
100
AcDbScale
 70
     0
300
1/8" = 1'-0"
140
0.125
141
12.0
290
     0
  0
SCALE
  5
A71
102
{ACAD_REACTORS
330
A59
102
}
330
A59
100
AcDbScale
 70
     0
300
3/16" = 1'-0"
140
0.1875
141
12.0
290
     0
  0
SCALE
  5
A72
102
{ACAD_REACTORS
330
A59
102
}
330
A59
100
AcDbScale
 70
     0
300
1/4" = 1'-0"
140
0.25
141
12.0
290
     0
  0
SCALE
  5
A73
102
{ACAD_REACTORS
330
A59
102
}
330
A59
100
AcDbScale
 70
     0
300
3/8" = 1'-0"
140
0.375
141
12.0
290
     0
  0
SCALE
  5
A74
102
{ACAD_REACTORS
330
A59
102
}
330
A59
100
AcDbScale
 70
     0
300
1/2" = 1'-0"
140
0.5
141
12.0
290
     0
  0
SCALE
  5
A75
102
{ACAD_REACTORS
330
A59
102
}
330
A59
100
AcDbScale
 70
     0
300
3/4" = 1'-0"
140
0.75
141
12.0
290
     0
  0
SCALE
  5
A76
102
{ACAD_REACTORS
330
A59
102
}
330
A59
100
AcDbScale
 70
     0
300
1" = 1'-0"
140
1.0
141
12.0
290
     0
  0
SCALE
  5
A77
102
{ACAD_REACTORS
330
A59
102
}
330
A59
100
AcDbScale
 70
     0
300
1-1/2" = 1'-0"
140
1.5
141
12.0
290
     0
  0
SCALE
  5
A78
102
{ACAD_REACTORS
330
A59
102
}
330
A59
100
AcDbScale
 70
     0
300
3" = 1'-0"
140
3.0
141
12.0
290
     0
  0
SCALE
  5
A79
102
{ACAD_REACTORS
330
A59
102
}
330
A59
100
AcDbScale
 70
     0
300
6" = 1'-0"
140
6.0
141
12.0
290
     0
  0
SCALE
  5
A7A
102
{ACAD_REACTORS
330
A59
102
}
330
A59
100
AcDbScale
 70
     0
300
1'-0" = 1'-0"
140
12.0
141
12.0
290
     0
  0
TABLESTYLE
  5
A8B
102
{ACAD_XDICTIONARY
360
D96
102
}
102
{ACAD_REACTORS
330
A8A
102
}
330
A8A
100
AcDbTableStyle
  3
Standard
 70
     0
 71
     0
 40
0.06
 41
0.06
280
     0
281
     0
  7
STANDARD
140
0.18
170
     2
 62
     0
 63
     7
283
     0
274
    -2
284
     1
 64
     0
275
    -2
285
     1
 65
     0
276
    -2
286
     1
 66
     0
277
    -2
287
     1
 67
     0
278
    -2
288
     1
 68
     0
279
    -2
289
     1
 69
     0
  7
STANDARD
140
0.25
170
     5
 62
     0
 63
     7
283
     0
274
    -2
284
     1
 64
     0
275
    -2
285
     1
 65
     0
276
    -2
286
     1
 66
     0
277
    -2
287
     1
 67
     0
278
    -2
288
     1
 68
     0
279
    -2
289
     1
 69
     0
  7
STANDARD
140
0.18
170
     5
 62
     0
 63
     7
283
     0
274
    -2
284
     1
 64
     0
275
    -2
285
     1
 65
     0
276
    -2
286
     1
 66
     0
277
    -2
287
     1
 67
     0
278
    -2
288
     1
 68
     0
279
    -2
289
     1
 69
     0
  0
VISUALSTYLE
  5
A4B
102
{ACAD_XDICTIONARY
360
DA7
102
}
102
{ACAD_REACTORS
330
A45
102
}
330
A45
100
AcDbVisualStyle
  2
2dWireframe
 70
     4
 71
     0
 72
     2
 73
     0
 90
        0
 40
-0.6
 41
-30.0
 62
     5
 63
     7
 74
     1
 91
        4
 64
     7
 65
   257
 75
     1
175
     1
 42
1.0
 92
        0
 66
   257
 43
1.0
 76
     1
 77
     6
 78
     2
 67
     7
 79
     5
170
     0
171
     0
290
     0
174
     0
 93
        1
 44
0.0
173
     0
291
     0
 45
0.0
1001
ACAD
1000
AcDbSavedByObjectVersion
1070
     0
  0
VISUALSTYLE
  5
A4D
102
{ACAD_XDICTIONARY
360
DAB
102
}
102
{ACAD_REACTORS
330
A45
102
}
330
A45
100
AcDbVisualStyle
  2
3D Hidden
 70
     6
 71
     1
 72
     2
 73
     2
 90
        0
 40
-0.6
 41
-30.0
 62
     5
 63
     7
 74
     2
 91
        2
 64
     7
 65
   257
 75
     2
175
     1
 42
179.0
 92
        0
 66
   257
 43
1.0
 76
     1
 77
     6
 78
     2
 67
     7
 79
     3
170
     0
171
     0
290
     0
174
     0
 93
        1
 44
0.0
173
     0
291
     0
 45
0.0
1001
ACAD
1000
AcDbSavedByObjectVersion
1070
     0
  0
VISUALSTYLE
  5
A4C
102
{ACAD_XDICTIONARY
360
DA9
102
}
102
{ACAD_REACTORS
330
A45
102
}
330
A45
100
AcDbVisualStyle
  2
3dWireframe
 70
     5
 71
     0
 72
     2
 73
     0
 90
        0
 40
-0.6
 41
-30.0
 62
     5
 63
     7
 74
     1
 91
        4
 64
     7
 65
   257
 75
     1
175
     1
 42
1.0
 92
        0
 66
   257
 43
1.0
 76
     1
 77
     6
 78
     2
 67
     7
 79
     5
170
     0
171
     0
290
     0
174
     0
 93
        1
 44
0.0
173
     0
291
     0
 45
0.0
1001
ACAD
1000
AcDbSavedByObjectVersion
1070
     0
  0
VISUALSTYLE
  5
A4A
102
{ACAD_XDICTIONARY
360
DA5
102
}
102
{ACAD_REACTORS
330
A45
102
}
330
A45
100
AcDbVisualStyle
  2
Basic
 70
     7
 71
     1
 72
     0
 73
     1
 90
        0
 40
-0.6
 41
-30.0
 62
     5
 63
     7
 74
     0
 91
        4
 64
     7
 65
   257
 75
     1
175
     1
 42
1.0
 92
        8
 66
     7
 43
1.0
 76
     1
 77
     6
 78
     2
 67
     7
 79
     5
170
     0
171
     0
290
     0
174
     0
 93
        1
 44
0.0
173
     0
291
     1
 45
0.0
1001
ACAD
1000
AcDbSavedByObjectVersion
1070
     0
  0
VISUALSTYLE
  5
A51
102
{ACAD_XDICTIONARY
360
DB3
102
}
102
{ACAD_REACTORS
330
A45
102
}
330
A45
100
AcDbVisualStyle
  2
Brighten
 70
    12
 71
     2
 72
     2
 73
     0
 90
        0
 40
-0.6
 41
-30.0
 62
     5
 63
     7
 74
     1
 91
        4
 64
     7
 65
   257
 75
     1
175
     1
 42
1.0
 92
        8
 66
     7
 43
1.0
 76
     1
 77
     6
 78
     2
 67
     7
 79
     5
170
     0
171
     0
290
     0
174
     0
 93
        1
 44
50.0
173
     0
291
     1
 45
0.0
1001
ACAD
1000
AcDbSavedByObjectVersion
1070
     0
  0
VISUALSTYLE
  5
A55
102
{ACAD_XDICTIONARY
360
DBB
102
}
102
{ACAD_REACTORS
330
A45
102
}
330
A45
100
AcDbVisualStyle
  2
ColorChange
 70
    16
 71
     2
 72
     2
 73
     3
 90
        0
 40
-0.6
 41
-30.0
 62
     5
 63
     8
 74
     1
 91
        4
 64
     7
 65
   257
 75
     1
175
     1
 42
1.0
 92
        8
 66
     8
 43
1.0
 76
     1
 77
     6
 78
     2
 67
     7
 79
     5
170
     0
171
     0
290
     0
174
     0
 93
        1
 44
0.0
173
     0
291
     1
 45
0.0
1001
ACAD
1000
AcDbSavedByObjectVersion
1070
     0
  0
VISUALSTYLE
  5
A4E
102
{ACAD_XDICTIONARY
360
DAD
102
}
102
{ACAD_REACTORS
330
A45
102
}
330
A45
100
AcDbVisualStyle
  2
Conceptual
 70
     9
 71
     3
 72
     2
 73
     0
 90
        0
 40
-0.6
 41
-30.0
 62
     5
 63
     7
 74
     2
 91
        2
 64
     7
 65
   257
 75
     1
175
     1
 42
179.0
 92
        8
 66
     7
 43
1.0
 76
     1
 77
     6
 78
     2
 67
     7
 79
     3
170
     0
171
     0
290
     0
174
     0
 93
        1
 44
0.0
173
     0
291
     0
 45
0.0
1001
ACAD
1000
AcDbSavedByObjectVersion
1070
     0
  0
VISUALSTYLE
  5
A50
102
{ACAD_XDICTIONARY
360
DB1
102
}
102
{ACAD_REACTORS
330
A45
102
}
330
A45
100
AcDbVisualStyle
  2
Dim
 70
    11
 71
     2
 72
     2
 73
     0
 90
        0
 40
-0.6
 41
-30.0
 62
     5
 63
     7
 74
     1
 91
        4
 64
     7
 65
   257
 75
     1
175
     1
 42
1.0
 92
        8
 66
     7
 43
1.0
 76
     1
 77
     6
 78
     2
 67
     7
 79
     5
170
     0
171
     0
290
     0
174
     0
 93
        1
 44
-50.0
173
     0
291
     1
 45
0.0
1001
ACAD
1000
AcDbSavedByObjectVersion
1070
     0
  0
VISUALSTYLE
  5
A58
102
{ACAD_XDICTIONARY
360
DC1
102
}
102
{ACAD_REACTORS
330
A45
102
}
330
A45
100
AcDbVisualStyle
  2
EdgeColorOff
 70
    22
 71
     2
 72
     2
 73
     0
 90
        0
 40
-0.6
 41
-30.0
 62
     5
 63
     7
 74
     1
 91
        4
 64
     7
 65
   257
 75
     1
175
     1
 42
1.0
 92
        8
 66
     7
 43
1.0
 76
     1
 77
     6
 78
     2
 67
     7
 79
     5
170
     0
171
     0
290
     0
174
     0
 93
        1
 44
0.0
173
     0
291
     1
 45
0.0
1001
ACAD
1000
AcDbSavedByObjectVersion
1070
     0
  0
VISUALSTYLE
  5
A54
102
{ACAD_XDICTIONARY
360
DB9
102
}
102
{ACAD_REACTORS
330
A45
102
}
330
A45
100
AcDbVisualStyle
  2
Facepattern
 70
    15
 71
     2
 72
     2
 73
     0
 90
        0
 40
-0.6
 41
-30.0
 62
     5
 63
     7
 74
     1
 91
        4
 64
     7
 65
   257
 75
     1
175
     1
 42
1.0
 92
        8
 66
     7
 43
1.0
 76
     1
 77
     6
 78
     2
 67
     7
 79
     5
170
     0
171
     0
290
     0
174
     0
 93
        1
 44
0.0
173
     0
291
     1
 45
0.0
1001
ACAD
1000
AcDbSavedByObjectVersion
1070
     0
  0
VISUALSTYLE
  5
A46
102
{ACAD_XDICTIONARY
360
D9D
102
}
102
{ACAD_REACTORS
330
A45
102
}
330
A45
100
AcDbVisualStyle
  2
Flat
 70
     0
 71
     2
 72
     1
 73
     1
 90
        2
 40
-0.6
 41
30.0
 62
     5
 63
     7
 74
     0
 91
        4
 64
     7
 65
   257
 75
     1
175
     1
 42
1.0
 92
        8
 66
     7
 43
1.0
 76
     1
 77
     6
 78
     2
 67
     7
 79
     5
170
     0
171
     0
290
     0
174
     0
 93
       13
 44
0.0
173
     0
291
     1
 45
0.0
1001
ACAD
1000
AcDbSavedByObjectVersion
1070
     0
  0
VISUALSTYLE
  5
A47
102
{ACAD_XDICTIONARY
360
D9F
102
}
102
{ACAD_REACTORS
330
A45
102
}
330
A45
100
AcDbVisualStyle
  2
FlatWithEdges
 70
     1
 71
     2
 72
     1
 73
     1
 90
        2
 40
-0.6
 41
30.0
 62
     5
 63
     7
 74
     1
 91
        4
 64
     7
 65
   257
 75
     1
175
     1
 42
1.0
 92
        0
 66
   257
 43
1.0
 76
     1
 77
     6
 78
     2
 67
     7
 79
     5
170
     0
171
     0
290
     0
174
     0
 93
       13
 44
0.0
173
     0
291
     1
 45
0.0
1001
ACAD
1000
AcDbSavedByObjectVersion
1070
     0
  0
VISUALSTYLE
  5
A48
102
{ACAD_XDICTIONARY
360
DA1
102
}
102
{ACAD_REACTORS
330
A45
102
}
330
A45
100
AcDbVisualStyle
  2
Gouraud
 70
     2
 71
     2
 72
     2
 73
     1
 90
        2
 40
-0.6
 41
30.0
 62
     5
 63
     7
 74
     0
 91
        4
 64
     7
 65
   257
 75
     1
175
     1
 42
1.0
 92
        0
 66
     7
 43
1.0
 76
     1
 77
     6
 78
     2
 67
     7
 79
     5
170
     0
171
     0
290
     0
174
     0
 93
       13
 44
0.0
173
     0
291
     1
 45
0.0
1001
ACAD
1000
AcDbSavedByObjectVersion
1070
     0
  0
VISUALSTYLE
  5
A49
102
{ACAD_XDICTIONARY
360
DA3
102
}
102
{ACAD_REACTORS
330
A45
102
}
330
A45
100
AcDbVisualStyle
  2
GouraudWithEdges
 70
     3
 71
     2
 72
     2
 73
     1
 90
        2
 40
-0.6
 41
30.0
 62
     5
 63
     7
 74
     1
 91
        4
 64
     7
 65
   257
 75
     1
175
     1
 42
1.0
 92
        0
 66
   257
 43
1.0
 76
     1
 77
     6
 78
     2
 67
     7
 79
     5
170
     0
171
     0
290
     0
174
     0
 93
       13
 44
0.0
173
     0
291
     1
 45
0.0
1001
ACAD
1000
AcDbSavedByObjectVersion
1070
     0
  0
VISUALSTYLE
  5
A56
102
{ACAD_XDICTIONARY
360
DBD
102
}
102
{ACAD_REACTORS
330
A45
102
}
330
A45
100
AcDbVisualStyle
  2
JitterOff
 70
    20
 71
     2
 72
     2
 73
     0
 90
        0
 40
-0.6
 41
-30.0
 62
     5
 63
     7
 74
     1
 91
        4
 64
     7
 65
   257
 75
     1
175
     1
 42
1.0
 92
       10
 66
     7
 43
1.0
 76
     1
 77
     6
 78
     2
 67
     7
 79
     5
170
     0
171
     0
290
     0
174
     0
 93
        1
 44
0.0
173
     0
291
     1
 45
0.0
1001
ACAD
1000
AcDbSavedByObjectVersion
1070
     0
  0
VISUALSTYLE
  5
A53
102
{ACAD_XDICTIONARY
360
DB7
102
}
102
{ACAD_REACTORS
330
A45
102
}
330
A45
100
AcDbVisualStyle
  2
Linepattern
 70
    14
 71
     2
 72
     2
 73
     0
 90
        0
 40
-0.6
 41
-30.0
 62
     5
 63
     7
 74
     1
 91
        4
 64
     7
 65
   257
 75
     7
175
     7
 42
1.0
 92
        8
 66
     7
 43
1.0
 76
     1
 77
     6
 78
     2
 67
     7
 79
     5
170
     0
171
     0
290
     0
174
     0
 93
        1
 44
0.0
173
     0
291
     1
 45
0.0
1001
ACAD
1000
AcDbSavedByObjectVersion
1070
     0
  0
VISUALSTYLE
  5
A57
102
{ACAD_XDICTIONARY
360
DBF
102
}
102
{ACAD_REACTORS
330
A45
102
}
330
A45
100
AcDbVisualStyle
  2
OverhangOff
 70
    21
 71
     2
 72
     2
 73
     0
 90
        0
 40
-0.6
 41
-30.0
 62
     5
 63
     7
 74
     1
 91
        4
 64
     7
 65
   257
 75
     1
175
     1
 42
1.0
 92
        9
 66
     7
 43
1.0
 76
     1
 77
     6
 78
     2
 67
     7
 79
     5
170
     0
171
     0
290
     0
174
     0
 93
        1
 44
0.0
173
     0
291
     1
 45
0.0
1001
ACAD
1000
AcDbSavedByObjectVersion
1070
     0
  0
VISUALSTYLE
  5
A4F
102
{ACAD_XDICTIONARY
360
DAF
102
}
102
{ACAD_REACTORS
330
A45
102
}
330
A45
100
AcDbVisualStyle
  2
Realistic
 70
     8
 71
     2
 72
     2
 73
     0
 90
        0
 40
-0.6
 41
-30.0
 62
     5
 63
     7
 74
     1
 91
        0
 64
     7
 65
   257
 75
     1
175
     1
 42
1.0
 92
        8
 66
     8
 43
1.0
 76
     1
 77
     6
 78
     2
 67
     7
 79
     5
170
     0
171
     0
290
     0
174
     0
 93
       13
 44
0.0
173
     0
291
     0
 45
0.0
1001
ACAD
1000
AcDbSavedByObjectVersion
1070
     0
  0
VISUALSTYLE
  5
A52
102
{ACAD_XDICTIONARY
360
DB5
102
}
102
{ACAD_REACTORS
330
A45
102
}
330
A45
100
AcDbVisualStyle
  2
Thicken
 70
    13
 71
     2
 72
     2
 73
     0
 90
        0
 40
-0.6
 41
-30.0
 62
     5
 63
     7
 74
     1
 91
        4
 64
     7
 65
   257
 75
     1
175
     1
 42
1.0
 92
       12
 66
     7
 43
1.0
 76
     1
 77
     6
 78
     2
 67
     7
 79
     5
170
     0
171
     0
290
     0
174
     0
 93
        1
 44
0.0
173
     0
291
     1
 45
0.0
1001
ACAD
1000
AcDbSavedByObjectVersion
1070
     0
  0
DICTIONARYVAR
  5
D2B
102
{ACAD_REACTORS
330
D28
102
}
330
D28
100
DictionaryVariables
280
     0
  1
1:1
  0
DICTIONARYVAR
  5
D2A
102
{ACAD_REACTORS
330
D28
102
}
330
D28
100
DictionaryVariables
280
     0
  1
STANDARD
  0
DICTIONARYVAR
  5
D29
102
{ACAD_REACTORS
330
D28
102
}
330
D28
100
DictionaryVariables
280
     0
  1
STANDARD
  0
DICTIONARYVAR
  5
D2E
102
{ACAD_REACTORS
330
D28
102
}
330
D28
100
DictionaryVariables
280
     0
  1
1
  0
DICTIONARYVAR
  5
D2D
102
{ACAD_REACTORS
330
D28
102
}
330
D28
100
DictionaryVariables
280
     0
  1
0
  0
DICTIONARYVAR
  5
D2C
102
{ACAD_REACTORS
330
D28
102
}
330
D28
100
DictionaryVariables
280
     0
  1
127
  0
DICTIONARYVAR
  5
D2F
102
{ACAD_REACTORS
330
D28
102
}
330
D28
100
DictionaryVariables
280
     0
  1
2
  0
DICTIONARY
  5
DC7
330
A95
100
AcDbDictionary
280
     1
281
     1
  3
ACAD_XREC_ROUNDTRIP
360
DC8
  0
DICTIONARY
  5
DC5
330
A91
100
AcDbDictionary
280
     1
281
     1
  3
ACAD_XREC_ROUNDTRIP
360
DC6
  0
DICTIONARY
  5
A36
330
A35
100
AcDbDictionary
280
     1
281
     1
  3
ACAD_XREC_ROUNDTRIP
360
D9B
  3
BUMPTILE
360
A38
  3
DIFFUSETILE
360
A37
  3
OPACITYTILE
360
A3B
  3
REFLECTIONTILE
360
A3A
  3
REFRACTIONTILE
360
A3C
  3
SPECULARTILE
360
A39
  0
DICTIONARY
  5
A2E
330
A2D
100
AcDbDictionary
280
     1
281
     1
  3
ACAD_XREC_ROUNDTRIP
360
D9A
  3
BUMPTILE
360
A30
  3
DIFFUSETILE
360
A2F
  3
OPACITYTILE
360
A33
  3
REFLECTIONTILE
360
A32
  3
REFRACTIONTILE
360
A34
  3
SPECULARTILE
360
A31
  0
DICTIONARY
  5
A3E
330
A3D
100
AcDbDictionary
280
     1
281
     1
  3
ACAD_XREC_ROUNDTRIP
360
D9C
  3
BUMPTILE
360
A40
  3
DIFFUSETILE
360
A3F
  3
OPACITYTILE
360
A43
  3
REFLECTIONTILE
360
A42
  3
REFRACTIONTILE
360
A44
  3
SPECULARTILE
360
A41
  0
DICTIONARY
  5
D96
330
A8B
100
AcDbDictionary
280
     1
281
     1
  3
ACAD_ROUNDTRIP_2008_TABLESTYLE_CELLSTYLEMAP
360
D97
  3
ACAD_XREC_ROUNDTRIP
360
DC3
  0
DICTIONARY
  5
DA7
330
A4B
100
AcDbDictionary
280
     1
281
     1
  3
ACAD_XREC_ROUNDTRIP
360
DA8
  0
DICTIONARY
  5
DAB
330
A4D
100
AcDbDictionary
280
     1
281
     1
  3
ACAD_XREC_ROUNDTRIP
360
DAC
  0
DICTIONARY
  5
DA9
330
A4C
100
AcDbDictionary
280
     1
281
     1
  3
ACAD_XREC_ROUNDTRIP
360
DAA
  0
DICTIONARY
  5
DA5
330
A4A
100
AcDbDictionary
280
     1
281
     1
  3
ACAD_XREC_ROUNDTRIP
360
DA6
  0
DICTIONARY
  5
DB3
330
A51
100
AcDbDictionary
280
     1
281
     1
  3
ACAD_XREC_ROUNDTRIP
360
DB4
  0
DICTIONARY
  5
DBB
330
A55
100
AcDbDictionary
280
     1
281
     1
  3
ACAD_XREC_ROUNDTRIP
360
DBC
  0
DICTIONARY
  5
DAD
330
A4E
100
AcDbDictionary
280
     1
281
     1
  3
ACAD_XREC_ROUNDTRIP
360
DAE
  0
DICTIONARY
  5
DB1
330
A50
100
AcDbDictionary
280
     1
281
     1
  3
ACAD_XREC_ROUNDTRIP
360
DB2
  0
DICTIONARY
  5
DC1
330
A58
100
AcDbDictionary
280
     1
281
     1
  3
ACAD_XREC_ROUNDTRIP
360
DC2
  0
DICTIONARY
  5
DB9
330
A54
100
AcDbDictionary
280
     1
281
     1
  3
ACAD_XREC_ROUNDTRIP
360
DBA
  0
DICTIONARY
  5
D9D
330
A46
100
AcDbDictionary
280
     1
281
     1
  3
ACAD_XREC_ROUNDTRIP
360
D9E
  0
DICTIONARY
  5
D9F
330
A47
100
AcDbDictionary
280
     1
281
     1
  3
ACAD_XREC_ROUNDTRIP
360
DA0
  0
DICTIONARY
  5
DA1
330
A48
100
AcDbDictionary
280
     1
281
     1
  3
ACAD_XREC_ROUNDTRIP
360
DA2
  0
DICTIONARY
  5
DA3
330
A49
100
AcDbDictionary
280
     1
281
     1
  3
ACAD_XREC_ROUNDTRIP
360
DA4
  0
DICTIONARY
  5
DBD
330
A56
100
AcDbDictionary
280
     1
281
     1
  3
ACAD_XREC_ROUNDTRIP
360
DBE
  0
DICTIONARY
  5
DB7
330
A53
100
AcDbDictionary
280
     1
281
     1
  3
ACAD_XREC_ROUNDTRIP
360
DB8
  0
DICTIONARY
  5
DBF
330
A57
100
AcDbDictionary
280
     1
281
     1
  3
ACAD_XREC_ROUNDTRIP
360
DC0
  0
DICTIONARY
  5
DAF
330
A4F
100
AcDbDictionary
280
     1
281
     1
  3
ACAD_XREC_ROUNDTRIP
360
DB0
  0
DICTIONARY
  5
DB5
330
A52
100
AcDbDictionary
280
     1
281
     1
  3
ACAD_XREC_ROUNDTRIP
360
DB6
  0
XRECORD
  5
DC8
102
{ACAD_REACTORS
330
DC7
102
}
330
DC7
100
AcDbXrecord
280
     1
102
SHADEPLOT
 70
     0
102
SHADEPLOTRESLEVEL
 70
     2
102
SHADEPLOTCUSTOMDPI
 70
   300
  0
XRECORD
  5
DC6
102
{ACAD_REACTORS
330
DC5
102
}
330
DC5
100
AcDbXrecord
280
     1
102
SHADEPLOT
 70
     0
102
SHADEPLOTRESLEVEL
 70
     2
102
SHADEPLOTCUSTOMDPI
 70
   300
  0
XRECORD
  5
D9B
102
{ACAD_REACTORS
330
A36
102
}
330
A36
100
AcDbXrecord
280
     1
102
MATERIAL
148
0.0
149
0.0
149
0.0
 93
        0
 94
      127
282
     0
 72
     0
 77
     0
171
     0
175
     0
179
     0
273
     0
  0
XRECORD
  5
A38
102
{ACAD_REACTORS
330
A36
102
}
330
A36
100
AcDbXrecord
280
     1
270
     1
271
     1
  0
XRECORD
  5
A37
102
{ACAD_REACTORS
330
A36
102
}
330
A36
100
AcDbXrecord
280
     1
270
     1
271
     1
  0
XRECORD
  5
A3B
102
{ACAD_REACTORS
330
A36
102
}
330
A36
100
AcDbXrecord
280
     1
270
     1
271
     1
  0
XRECORD
  5
A3A
102
{ACAD_REACTORS
330
A36
102
}
330
A36
100
AcDbXrecord
280
     1
270
     1
271
     1
  0
XRECORD
  5
A3C
102
{ACAD_REACTORS
330
A36
102
}
330
A36
100
AcDbXrecord
280
     1
270
     1
271
     1
  0
XRECORD
  5
A39
102
{ACAD_REACTORS
330
A36
102
}
330
A36
100
AcDbXrecord
280
     1
270
     1
271
     1
  0
XRECORD
  5
D9A
102
{ACAD_REACTORS
330
A2E
102
}
330
A2E
100
AcDbXrecord
280
     1
102
MATERIAL
148
0.0
149
0.0
149
0.0
 93
        0
 94
      127
282
     0
 72
     0
 77
     0
171
     0
175
     0
179
     0
273
     0
  0
XRECORD
  5
A30
102
{ACAD_REACTORS
330
A2E
102
}
330
A2E
100
AcDbXrecord
280
     1
270
     1
271
     1
  0
XRECORD
  5
A2F
102
{ACAD_REACTORS
330
A2E
102
}
330
A2E
100
AcDbXrecord
280
     1
270
     1
271
     1
  0
XRECORD
  5
A33
102
{ACAD_REACTORS
330
A2E
102
}
330
A2E
100
AcDbXrecord
280
     1
270
     1
271
     1
  0
XRECORD
  5
A32
102
{ACAD_REACTORS
330
A2E
102
}
330
A2E
100
AcDbXrecord
280
     1
270
     1
271
     1
  0
XRECORD
  5
A34
102
{ACAD_REACTORS
330
A2E
102
}
330
A2E
100
AcDbXrecord
280
     1
270
     1
271
     1
  0
XRECORD
  5
A31
102
{ACAD_REACTORS
330
A2E
102
}
330
A2E
100
AcDbXrecord
280
     1
270
     1
271
     1
  0
XRECORD
  5
D9C
102
{ACAD_REACTORS
330
A3E
102
}
330
A3E
100
AcDbXrecord
280
     1
102
MATERIAL
148
0.0
149
0.0
149
0.0
 93
        0
 94
      127
282
     0
 72
     0
 77
     0
171
     0
175
     0
179
     0
273
     0
  0
XRECORD
  5
A40
102
{ACAD_REACTORS
330
A3E
102
}
330
A3E
100
AcDbXrecord
280
     1
270
     1
271
     1
  0
XRECORD
  5
A3F
102
{ACAD_REACTORS
330
A3E
102
}
330
A3E
100
AcDbXrecord
280
     1
270
     1
271
     1
  0
XRECORD
  5
A43
102
{ACAD_REACTORS
330
A3E
102
}
330
A3E
100
AcDbXrecord
280
     1
270
     1
271
     1
  0
XRECORD
  5
A42
102
{ACAD_REACTORS
330
A3E
102
}
330
A3E
100
AcDbXrecord
280
     1
270
     1
271
     1
  0
XRECORD
  5
A44
102
{ACAD_REACTORS
330
A3E
102
}
330
A3E
100
AcDbXrecord
280
     1
270
     1
271
     1
  0
XRECORD
  5
A41
102
{ACAD_REACTORS
330
A3E
102
}
330
A3E
100
AcDbXrecord
280
     1
270
     1
271
     1
  0
CELLSTYLEMAP
  5
D97
102
{ACAD_REACTORS
330
D96
102
}
330
D96
100
AcDbCellStyleMap
 90
        3
300
CELLSTYLE
  1
TABLEFORMAT_BEGIN
 90
        5
170
     1
 91
        0
 92
    32768
 62
   257
 93
        1
300
CONTENTFORMAT
  1
CONTENTFORMAT_BEGIN
 90
        0
 91
        0
 92
      512
 93
        0
300

 40
0.0
140
1.0
 94
        5
 62
     0
340
A7C
144
0.25
309
CONTENTFORMAT_END
171
     0
 94
        0
309
TABLEFORMAT_END
  1
CELLSTYLE_BEGIN
 90
        1
 91
        1
300
_TITLE
309
CELLSTYLE_END
300
CELLSTYLE
  1
TABLEFORMAT_BEGIN
 90
        5
170
     1
 91
        0
 92
        0
 62
   257
 93
        1
300
CONTENTFORMAT
  1
CONTENTFORMAT_BEGIN
 90
        0
 91
        0
 92
      512
 93
        0
300

 40
0.0
140
1.0
 94
        5
 62
     0
340
A7C
144
0.18
309
CONTENTFORMAT_END
171
     0
 94
        0
309
TABLEFORMAT_END
  1
CELLSTYLE_BEGIN
 90
        2
 91
        1
300
_HEADER
309
CELLSTYLE_END
300
CELLSTYLE
  1
TABLEFORMAT_BEGIN
 90
        5
170
     1
 91
        0
 92
        0
 62
   257
 93
        1
300
CONTENTFORMAT
  1
CONTENTFORMAT_BEGIN
 90
        0
 91
        0
 92
      512
 93
        0
300

 40
0.0
140
1.0
 94
        2
 62
     0
340
A7C
144
0.18
309
CONTENTFORMAT_END
171
     0
 94
        0
309
TABLEFORMAT_END
  1
CELLSTYLE_BEGIN
 90
        3
 91
        2
300
_DATA
309
CELLSTYLE_END
  0
XRECORD
  5
DC3
102
{ACAD_REACTORS
330
D96
102
}
330
D96
100
AcDbXrecord
280
     1
102
ACAD_ROUNDTRIP_PRE2007_TABLESTYLE
 90
      512
 91
        0
  1

 92
      512
 93
        0
  2

 94
      512
 95
        0
  3

  0
XRECORD
  5
DA8
102
{ACAD_REACTORS
330
DA7
102
}
330
DA7
100
AcDbXrecord
280
     1
102
RTVSPropertyOp0
 70
     1
102
RTVSPropertyOp1
 70
     1
102
RTVSPropertyOp2
 70
     1
102
RTVSPropertyOp3
 70
     1
102
RTVSPropertyOp4
 70
     1
102
RTVSPropertyOp5
 70
     1
102
RTVSPropertyOp6
 70
     1
102
RTVSPropertyOp7
 70
     1
102
RTVSPropertyOp8
 70
     1
102
RTVSPropertyOp9
 70
     1
102
RTVSPropertyOp10
 70
     1
102
RTVSPropertyOp11
 70
     1
102
RTVSPropertyOp12
 70
     1
102
RTVSPropertyOp13
 70
     1
102
RTVSPropertyOp14
 70
     1
102
RTVSPropertyOp15
 70
     1
102
RTVSPropertyOp16
 70
     1
102
RTVSPropertyOp17
 70
     1
102
RTVSPropertyOp18
 70
     1
102
RTVSPropertyOp19
 70
     1
102
RTVSPropertyOp20
 70
     1
102
RTVSPropertyOp21
 70
     1
102
RTVSPropertyOp22
 70
     1
102
RTVSPropertyOp23
 70
     1
102
RTVSPropertyOp24
 70
     1
102
RTVSPropertyOp25
 70
     1
102
RTVSPropertyOp26
 70
     1
102
RTVSPropertyOp27
 70
     1
  0
XRECORD
  5
DAC
102
{ACAD_REACTORS
330
DAB
102
}
330
DAB
100
AcDbXrecord
280
     1
102
RTVSPropertyOp0
 70
     1
102
RTVSPropertyOp1
 70
     1
102
RTVSPropertyOp2
 70
     1
102
RTVSPropertyOp3
 70
     1
102
RTVSPropertyOp4
 70
     1
102
RTVSPropertyOp5
 70
     1
102
RTVSPropertyOp6
 70
     1
102
RTVSPropertyOp7
 70
     1
102
RTVSPropertyOp8
 70
     1
102
RTVSPropertyOp9
 70
     1
102
RTVSPropertyOp10
 70
     1
102
RTVSPropertyOp11
 70
     1
102
RTVSPropertyOp12
 70
     1
102
RTVSPropertyOp13
 70
     1
102
RTVSPropertyOp14
 70
     1
102
RTVSPropertyOp15
 70
     1
102
RTVSPropertyOp16
 70
     1
102
RTVSPropertyOp17
 70
     1
102
RTVSPropertyOp18
 70
     1
102
RTVSPropertyOp19
 70
     1
102
RTVSPropertyOp20
 70
     1
102
RTVSPropertyOp21
 70
     1
102
RTVSPropertyOp22
 70
     1
102
RTVSPropertyOp23
 70
     1
102
RTVSPropertyOp24
 70
     1
102
RTVSPropertyOp25
 70
     1
102
RTVSPropertyOp26
 70
     1
102
RTVSPropertyOp27
 70
     1
  0
XRECORD
  5
DAA
102
{ACAD_REACTORS
330
DA9
102
}
330
DA9
100
AcDbXrecord
280
     1
102
RTVSPropertyOp0
 70
     1
102
RTVSPropertyOp1
 70
     1
102
RTVSPropertyOp2
 70
     1
102
RTVSPropertyOp3
 70
     1
102
RTVSPropertyOp4
 70
     1
102
RTVSPropertyOp5
 70
     1
102
RTVSPropertyOp6
 70
     1
102
RTVSPropertyOp7
 70
     1
102
RTVSPropertyOp8
 70
     1
102
RTVSPropertyOp9
 70
     1
102
RTVSPropertyOp10
 70
     1
102
RTVSPropertyOp11
 70
     1
102
RTVSPropertyOp12
 70
     1
102
RTVSPropertyOp13
 70
     1
102
RTVSPropertyOp14
 70
     1
102
RTVSPropertyOp15
 70
     1
102
RTVSPropertyOp16
 70
     1
102
RTVSPropertyOp17
 70
     1
102
RTVSPropertyOp18
 70
     1
102
RTVSPropertyOp19
 70
     1
102
RTVSPropertyOp20
 70
     1
102
RTVSPropertyOp21
 70
     1
102
RTVSPropertyOp22
 70
     1
102
RTVSPropertyOp23
 70
     1
102
RTVSPropertyOp24
 70
     1
102
RTVSPropertyOp25
 70
     1
102
RTVSPropertyOp26
 70
     1
102
RTVSPropertyOp27
 70
     1
  0
XRECORD
  5
DA6
102
{ACAD_REACTORS
330
DA5
102
}
330
DA5
100
AcDbXrecord
280
     1
102
RTVSPropertyOp0
 70
     1
102
RTVSPropertyOp1
 70
     1
102
RTVSPropertyOp2
 70
     1
102
RTVSPropertyOp3
 70
     1
102
RTVSPropertyOp4
 70
     1
102
RTVSPropertyOp5
 70
     1
102
RTVSPropertyOp6
 70
     1
102
RTVSPropertyOp7
 70
     1
102
RTVSPropertyOp8
 70
     1
102
RTVSPropertyOp9
 70
     1
102
RTVSPropertyOp10
 70
     1
102
RTVSPropertyOp11
 70
     1
102
RTVSPropertyOp12
 70
     1
102
RTVSPropertyOp13
 70
     1
102
RTVSPropertyOp14
 70
     1
102
RTVSPropertyOp15
 70
     1
102
RTVSPropertyOp16
 70
     1
102
RTVSPropertyOp17
 70
     1
102
RTVSPropertyOp18
 70
     1
102
RTVSPropertyOp19
 70
     1
102
RTVSPropertyOp20
 70
     1
102
RTVSPropertyOp21
 70
     1
102
RTVSPropertyOp22
 70
     1
102
RTVSPropertyOp23
 70
     1
102
RTVSPropertyOp24
 70
     1
102
RTVSPropertyOp25
 70
     1
102
RTVSPropertyOp26
 70
     1
102
RTVSPropertyOp27
 70
     1
  0
XRECORD
  5
DB4
102
{ACAD_REACTORS
330
DB3
102
}
330
DB3
100
AcDbXrecord
280
     1
102
RTVSPropertyOp0
 70
     1
102
RTVSPropertyOp1
 70
     1
102
RTVSPropertyOp2
 70
     1
102
RTVSPropertyOp3
 70
     1
102
RTVSPropertyOp4
 70
     1
102
RTVSPropertyOp5
 70
     1
102
RTVSPropertyOp6
 70
     1
102
RTVSPropertyOp7
 70
     1
102
RTVSPropertyOp8
 70
     1
102
RTVSPropertyOp9
 70
     1
102
RTVSPropertyOp10
 70
     1
102
RTVSPropertyOp11
 70
     1
102
RTVSPropertyOp12
 70
     1
102
RTVSPropertyOp13
 70
     1
102
RTVSPropertyOp14
 70
     1
102
RTVSPropertyOp15
 70
     1
102
RTVSPropertyOp16
 70
     1
102
RTVSPropertyOp17
 70
     1
102
RTVSPropertyOp18
 70
     1
102
RTVSPropertyOp19
 70
     1
102
RTVSPropertyOp20
 70
     1
102
RTVSPropertyOp21
 70
     1
102
RTVSPropertyOp22
 70
     1
102
RTVSPropertyOp23
 70
     1
102
RTVSPropertyOp24
 70
     1
102
RTVSPropertyOp25
 70
     1
102
RTVSPropertyOp26
 70
     1
102
RTVSPropertyOp27
 70
     1
  0
XRECORD
  5
DBC
102
{ACAD_REACTORS
330
DBB
102
}
330
DBB
100
AcDbXrecord
280
     1
102
RTVSPropertyOp0
 70
     1
102
RTVSPropertyOp1
 70
     1
102
RTVSPropertyOp2
 70
     1
102
RTVSPropertyOp3
 70
     1
102
RTVSPropertyOp4
 70
     1
102
RTVSPropertyOp5
 70
     1
102
RTVSPropertyOp6
 70
     1
102
RTVSPropertyOp7
 70
     1
102
RTVSPropertyOp8
 70
     1
102
RTVSPropertyOp9
 70
     1
102
RTVSPropertyOp10
 70
     1
102
RTVSPropertyOp11
 70
     1
102
RTVSPropertyOp12
 70
     1
102
RTVSPropertyOp13
 70
     1
102
RTVSPropertyOp14
 70
     1
102
RTVSPropertyOp15
 70
     1
102
RTVSPropertyOp16
 70
     1
102
RTVSPropertyOp17
 70
     1
102
RTVSPropertyOp18
 70
     1
102
RTVSPropertyOp19
 70
     1
102
RTVSPropertyOp20
 70
     1
102
RTVSPropertyOp21
 70
     1
102
RTVSPropertyOp22
 70
     1
102
RTVSPropertyOp23
 70
     1
102
RTVSPropertyOp24
 70
     1
102
RTVSPropertyOp25
 70
     1
102
RTVSPropertyOp26
 70
     1
102
RTVSPropertyOp27
 70
     1
  0
XRECORD
  5
DAE
102
{ACAD_REACTORS
330
DAD
102
}
330
DAD
100
AcDbXrecord
280
     1
102
RTVSPropertyOp0
 70
     1
102
RTVSPropertyOp1
 70
     1
102
RTVSPropertyOp2
 70
     1
102
RTVSPropertyOp3
 70
     1
102
RTVSPropertyOp4
 70
     1
102
RTVSPropertyOp5
 70
     1
102
RTVSPropertyOp6
 70
     1
102
RTVSPropertyOp7
 70
     1
102
RTVSPropertyOp8
 70
     1
102
RTVSPropertyOp9
 70
     1
102
RTVSPropertyOp10
 70
     1
102
RTVSPropertyOp11
 70
     1
102
RTVSPropertyOp12
 70
     1
102
RTVSPropertyOp13
 70
     1
102
RTVSPropertyOp14
 70
     1
102
RTVSPropertyOp15
 70
     1
102
RTVSPropertyOp16
 70
     1
102
RTVSPropertyOp17
 70
     1
102
RTVSPropertyOp18
 70
     1
102
RTVSPropertyOp19
 70
     1
102
RTVSPropertyOp20
 70
     1
102
RTVSPropertyOp21
 70
     1
102
RTVSPropertyOp22
 70
     1
102
RTVSPropertyOp23
 70
     1
102
RTVSPropertyOp24
 70
     1
102
RTVSPropertyOp25
 70
     1
102
RTVSPropertyOp26
 70
     1
102
RTVSPropertyOp27
 70
     1
  0
XRECORD
  5
DB2
102
{ACAD_REACTORS
330
DB1
102
}
330
DB1
100
AcDbXrecord
280
     1
102
RTVSPropertyOp0
 70
     1
102
RTVSPropertyOp1
 70
     1
102
RTVSPropertyOp2
 70
     1
102
RTVSPropertyOp3
 70
     1
102
RTVSPropertyOp4
 70
     1
102
RTVSPropertyOp5
 70
     1
102
RTVSPropertyOp6
 70
     1
102
RTVSPropertyOp7
 70
     1
102
RTVSPropertyOp8
 70
     1
102
RTVSPropertyOp9
 70
     1
102
RTVSPropertyOp10
 70
     1
102
RTVSPropertyOp11
 70
     1
102
RTVSPropertyOp12
 70
     1
102
RTVSPropertyOp13
 70
     1
102
RTVSPropertyOp14
 70
     1
102
RTVSPropertyOp15
 70
     1
102
RTVSPropertyOp16
 70
     1
102
RTVSPropertyOp17
 70
     1
102
RTVSPropertyOp18
 70
     1
102
RTVSPropertyOp19
 70
     1
102
RTVSPropertyOp20
 70
     1
102
RTVSPropertyOp21
 70
     1
102
RTVSPropertyOp22
 70
     1
102
RTVSPropertyOp23
 70
     1
102
RTVSPropertyOp24
 70
     1
102
RTVSPropertyOp25
 70
     1
102
RTVSPropertyOp26
 70
     1
102
RTVSPropertyOp27
 70
     1
  0
XRECORD
  5
DC2
102
{ACAD_REACTORS
330
DC1
102
}
330
DC1
100
AcDbXrecord
280
     1
102
RTVSPropertyOp0
 70
     0
102
RTVSPropertyOp1
 70
     0
102
RTVSPropertyOp2
 70
     0
102
RTVSPropertyOp3
 70
     0
102
RTVSPropertyOp4
 70
     0
102
RTVSPropertyOp5
 70
     0
102
RTVSPropertyOp6
 70
     0
102
RTVSPropertyOp7
 70
     0
102
RTVSPropertyOp8
 70
     0
102
RTVSPropertyOp9
 70
     0
102
RTVSPropertyOp10
 70
     0
102
RTVSPropertyOp11
 70
     0
102
RTVSPropertyOp12
 70
     0
102
RTVSPropertyOp13
 70
     0
102
RTVSPropertyOp14
 70
     2
102
RTVSPropertyOp15
 70
     0
102
RTVSPropertyOp16
 70
     0
102
RTVSPropertyOp17
 70
     0
102
RTVSPropertyOp18
 70
     0
102
RTVSPropertyOp19
 70
     0
102
RTVSPropertyOp20
 70
     0
102
RTVSPropertyOp21
 70
     0
102
RTVSPropertyOp22
 70
     0
102
RTVSPropertyOp23
 70
     0
102
RTVSPropertyOp24
 70
     0
102
RTVSPropertyOp25
 70
     0
102
RTVSPropertyOp26
 70
     0
102
RTVSPropertyOp27
 70
     0
  0
XRECORD
  5
DBA
102
{ACAD_REACTORS
330
DB9
102
}
330
DB9
100
AcDbXrecord
280
     1
102
RTVSPropertyOp0
 70
     1
102
RTVSPropertyOp1
 70
     1
102
RTVSPropertyOp2
 70
     1
102
RTVSPropertyOp3
 70
     1
102
RTVSPropertyOp4
 70
     1
102
RTVSPropertyOp5
 70
     1
102
RTVSPropertyOp6
 70
     1
102
RTVSPropertyOp7
 70
     1
102
RTVSPropertyOp8
 70
     1
102
RTVSPropertyOp9
 70
     1
102
RTVSPropertyOp10
 70
     1
102
RTVSPropertyOp11
 70
     1
102
RTVSPropertyOp12
 70
     1
102
RTVSPropertyOp13
 70
     1
102
RTVSPropertyOp14
 70
     1
102
RTVSPropertyOp15
 70
     1
102
RTVSPropertyOp16
 70
     1
102
RTVSPropertyOp17
 70
     1
102
RTVSPropertyOp18
 70
     1
102
RTVSPropertyOp19
 70
     1
102
RTVSPropertyOp20
 70
     1
102
RTVSPropertyOp21
 70
     1
102
RTVSPropertyOp22
 70
     1
102
RTVSPropertyOp23
 70
     1
102
RTVSPropertyOp24
 70
     1
102
RTVSPropertyOp25
 70
     1
102
RTVSPropertyOp26
 70
     1
102
RTVSPropertyOp27
 70
     1
  0
XRECORD
  5
D9E
102
{ACAD_REACTORS
330
D9D
102
}
330
D9D
100
AcDbXrecord
280
     1
102
RTVSPropertyOp0
 70
     1
102
RTVSPropertyOp1
 70
     1
102
RTVSPropertyOp2
 70
     1
102
RTVSPropertyOp3
 70
     1
102
RTVSPropertyOp4
 70
     1
102
RTVSPropertyOp5
 70
     1
102
RTVSPropertyOp6
 70
     1
102
RTVSPropertyOp7
 70
     1
102
RTVSPropertyOp8
 70
     1
102
RTVSPropertyOp9
 70
     1
102
RTVSPropertyOp10
 70
     1
102
RTVSPropertyOp11
 70
     1
102
RTVSPropertyOp12
 70
     1
102
RTVSPropertyOp13
 70
     1
102
RTVSPropertyOp14
 70
     1
102
RTVSPropertyOp15
 70
     1
102
RTVSPropertyOp16
 70
     1
102
RTVSPropertyOp17
 70
     1
102
RTVSPropertyOp18
 70
     1
102
RTVSPropertyOp19
 70
     1
102
RTVSPropertyOp20
 70
     1
102
RTVSPropertyOp21
 70
     1
102
RTVSPropertyOp22
 70
     1
102
RTVSPropertyOp23
 70
     1
102
RTVSPropertyOp24
 70
     1
102
RTVSPropertyOp25
 70
     1
102
RTVSPropertyOp26
 70
     1
102
RTVSPropertyOp27
 70
     1
  0
XRECORD
  5
DA0
102
{ACAD_REACTORS
330
D9F
102
}
330
D9F
100
AcDbXrecord
280
     1
102
RTVSPropertyOp0
 70
     1
102
RTVSPropertyOp1
 70
     1
102
RTVSPropertyOp2
 70
     1
102
RTVSPropertyOp3
 70
     1
102
RTVSPropertyOp4
 70
     1
102
RTVSPropertyOp5
 70
     1
102
RTVSPropertyOp6
 70
     1
102
RTVSPropertyOp7
 70
     1
102
RTVSPropertyOp8
 70
     1
102
RTVSPropertyOp9
 70
     1
102
RTVSPropertyOp10
 70
     1
102
RTVSPropertyOp11
 70
     1
102
RTVSPropertyOp12
 70
     1
102
RTVSPropertyOp13
 70
     1
102
RTVSPropertyOp14
 70
     1
102
RTVSPropertyOp15
 70
     1
102
RTVSPropertyOp16
 70
     1
102
RTVSPropertyOp17
 70
     1
102
RTVSPropertyOp18
 70
     1
102
RTVSPropertyOp19
 70
     1
102
RTVSPropertyOp20
 70
     1
102
RTVSPropertyOp21
 70
     1
102
RTVSPropertyOp22
 70
     1
102
RTVSPropertyOp23
 70
     1
102
RTVSPropertyOp24
 70
     1
102
RTVSPropertyOp25
 70
     1
102
RTVSPropertyOp26
 70
     1
102
RTVSPropertyOp27
 70
     1
  0
XRECORD
  5
DA2
102
{ACAD_REACTORS
330
DA1
102
}
330
DA1
100
AcDbXrecord
280
     1
102
RTVSPropertyOp0
 70
     1
102
RTVSPropertyOp1
 70
     1
102
RTVSPropertyOp2
 70
     1
102
RTVSPropertyOp3
 70
     1
102
RTVSPropertyOp4
 70
     1
102
RTVSPropertyOp5
 70
     1
102
RTVSPropertyOp6
 70
     1
102
RTVSPropertyOp7
 70
     1
102
RTVSPropertyOp8
 70
     1
102
RTVSPropertyOp9
 70
     1
102
RTVSPropertyOp10
 70
     1
102
RTVSPropertyOp11
 70
     1
102
RTVSPropertyOp12
 70
     1
102
RTVSPropertyOp13
 70
     1
102
RTVSPropertyOp14
 70
     1
102
RTVSPropertyOp15
 70
     1
102
RTVSPropertyOp16
 70
     1
102
RTVSPropertyOp17
 70
     1
102
RTVSPropertyOp18
 70
     1
102
RTVSPropertyOp19
 70
     1
102
RTVSPropertyOp20
 70
     1
102
RTVSPropertyOp21
 70
     1
102
RTVSPropertyOp22
 70
     1
102
RTVSPropertyOp23
 70
     1
102
RTVSPropertyOp24
 70
     1
102
RTVSPropertyOp25
 70
     1
102
RTVSPropertyOp26
 70
     1
102
RTVSPropertyOp27
 70
     1
  0
XRECORD
  5
DA4
102
{ACAD_REACTORS
330
DA3
102
}
330
DA3
100
AcDbXrecord
280
     1
102
RTVSPropertyOp0
 70
     1
102
RTVSPropertyOp1
 70
     1
102
RTVSPropertyOp2
 70
     1
102
RTVSPropertyOp3
 70
     1
102
RTVSPropertyOp4
 70
     1
102
RTVSPropertyOp5
 70
     1
102
RTVSPropertyOp6
 70
     1
102
RTVSPropertyOp7
 70
     1
102
RTVSPropertyOp8
 70
     1
102
RTVSPropertyOp9
 70
     1
102
RTVSPropertyOp10
 70
     1
102
RTVSPropertyOp11
 70
     1
102
RTVSPropertyOp12
 70
     1
102
RTVSPropertyOp13
 70
     1
102
RTVSPropertyOp14
 70
     1
102
RTVSPropertyOp15
 70
     1
102
RTVSPropertyOp16
 70
     1
102
RTVSPropertyOp17
 70
     1
102
RTVSPropertyOp18
 70
     1
102
RTVSPropertyOp19
 70
     1
102
RTVSPropertyOp20
 70
     1
102
RTVSPropertyOp21
 70
     1
102
RTVSPropertyOp22
 70
     1
102
RTVSPropertyOp23
 70
     1
102
RTVSPropertyOp24
 70
     1
102
RTVSPropertyOp25
 70
     1
102
RTVSPropertyOp26
 70
     1
102
RTVSPropertyOp27
 70
     1
  0
XRECORD
  5
DBE
102
{ACAD_REACTORS
330
DBD
102
}
330
DBD
100
AcDbXrecord
280
     1
102
RTVSPropertyOp0
 70
     0
102
RTVSPropertyOp1
 70
     0
102
RTVSPropertyOp2
 70
     0
102
RTVSPropertyOp3
 70
     0
102
RTVSPropertyOp4
 70
     0
102
RTVSPropertyOp5
 70
     0
102
RTVSPropertyOp6
 70
     0
102
RTVSPropertyOp7
 70
     0
102
RTVSPropertyOp8
 70
     0
102
RTVSPropertyOp9
 70
     0
102
RTVSPropertyOp10
 70
     0
102
RTVSPropertyOp11
 70
     0
102
RTVSPropertyOp12
 70
     0
102
RTVSPropertyOp13
 70
     0
102
RTVSPropertyOp14
 70
     2
102
RTVSPropertyOp15
 70
     0
102
RTVSPropertyOp16
 70
     0
102
RTVSPropertyOp17
 70
     0
102
RTVSPropertyOp18
 70
     0
102
RTVSPropertyOp19
 70
     0
102
RTVSPropertyOp20
 70
     0
102
RTVSPropertyOp21
 70
     0
102
RTVSPropertyOp22
 70
     0
102
RTVSPropertyOp23
 70
     0
102
RTVSPropertyOp24
 70
     0
102
RTVSPropertyOp25
 70
     0
102
RTVSPropertyOp26
 70
     0
102
RTVSPropertyOp27
 70
     0
  0
XRECORD
  5
DB8
102
{ACAD_REACTORS
330
DB7
102
}
330
DB7
100
AcDbXrecord
280
     1
102
RTVSPropertyOp0
 70
     1
102
RTVSPropertyOp1
 70
     1
102
RTVSPropertyOp2
 70
     1
102
RTVSPropertyOp3
 70
     1
102
RTVSPropertyOp4
 70
     1
102
RTVSPropertyOp5
 70
     1
102
RTVSPropertyOp6
 70
     1
102
RTVSPropertyOp7
 70
     1
102
RTVSPropertyOp8
 70
     1
102
RTVSPropertyOp9
 70
     1
102
RTVSPropertyOp10
 70
     1
102
RTVSPropertyOp11
 70
     1
102
RTVSPropertyOp12
 70
     1
102
RTVSPropertyOp13
 70
     1
102
RTVSPropertyOp14
 70
     1
102
RTVSPropertyOp15
 70
     1
102
RTVSPropertyOp16
 70
     1
102
RTVSPropertyOp17
 70
     1
102
RTVSPropertyOp18
 70
     1
102
RTVSPropertyOp19
 70
     1
102
RTVSPropertyOp20
 70
     1
102
RTVSPropertyOp21
 70
     1
102
RTVSPropertyOp22
 70
     1
102
RTVSPropertyOp23
 70
     1
102
RTVSPropertyOp24
 70
     1
102
RTVSPropertyOp25
 70
     1
102
RTVSPropertyOp26
 70
     1
102
RTVSPropertyOp27
 70
     1
  0
XRECORD
  5
DC0
102
{ACAD_REACTORS
330
DBF
102
}
330
DBF
100
AcDbXrecord
280
     1
102
RTVSPropertyOp0
 70
     0
102
RTVSPropertyOp1
 70
     0
102
RTVSPropertyOp2
 70
     0
102
RTVSPropertyOp3
 70
     0
102
RTVSPropertyOp4
 70
     0
102
RTVSPropertyOp5
 70
     0
102
RTVSPropertyOp6
 70
     0
102
RTVSPropertyOp7
 70
     0
102
RTVSPropertyOp8
 70
     0
102
RTVSPropertyOp9
 70
     0
102
RTVSPropertyOp10
 70
     0
102
RTVSPropertyOp11
 70
     0
102
RTVSPropertyOp12
 70
     0
102
RTVSPropertyOp13
 70
     0
102
RTVSPropertyOp14
 70
     2
102
RTVSPropertyOp15
 70
     0
102
RTVSPropertyOp16
 70
     0
102
RTVSPropertyOp17
 70
     0
102
RTVSPropertyOp18
 70
     0
102
RTVSPropertyOp19
 70
     0
102
RTVSPropertyOp20
 70
     0
102
RTVSPropertyOp21
 70
     0
102
RTVSPropertyOp22
 70
     0
102
RTVSPropertyOp23
 70
     0
102
RTVSPropertyOp24
 70
     0
102
RTVSPropertyOp25
 70
     0
102
RTVSPropertyOp26
 70
     0
102
RTVSPropertyOp27
 70
     0
  0
XRECORD
  5
DB0
102
{ACAD_REACTORS
330
DAF
102
}
330
DAF
100
AcDbXrecord
280
     1
102
RTVSPropertyOp0
 70
     1
102
RTVSPropertyOp1
 70
     1
102
RTVSPropertyOp2
 70
     1
102
RTVSPropertyOp3
 70
     1
102
RTVSPropertyOp4
 70
     1
102
RTVSPropertyOp5
 70
     1
102
RTVSPropertyOp6
 70
     1
102
RTVSPropertyOp7
 70
     1
102
RTVSPropertyOp8
 70
     1
102
RTVSPropertyOp9
 70
     1
102
RTVSPropertyOp10
 70
     1
102
RTVSPropertyOp11
 70
     1
102
RTVSPropertyOp12
 70
     1
102
RTVSPropertyOp13
 70
     1
102
RTVSPropertyOp14
 70
     1
102
RTVSPropertyOp15
 70
     1
102
RTVSPropertyOp16
 70
     1
102
RTVSPropertyOp17
 70
     1
102
RTVSPropertyOp18
 70
     1
102
RTVSPropertyOp19
 70
     1
102
RTVSPropertyOp20
 70
     1
102
RTVSPropertyOp21
 70
     1
102
RTVSPropertyOp22
 70
     1
102
RTVSPropertyOp23
 70
     1
102
RTVSPropertyOp24
 70
     1
102
RTVSPropertyOp25
 70
     1
102
RTVSPropertyOp26
 70
     1
102
RTVSPropertyOp27
 70
     1
  0
XRECORD
  5
DB6
102
{ACAD_REACTORS
330
DB5
102
}
330
DB5
100
AcDbXrecord
280
     1
102
RTVSPropertyOp0
 70
     1
102
RTVSPropertyOp1
 70
     1
102
RTVSPropertyOp2
 70
     1
102
RTVSPropertyOp3
 70
     1
102
RTVSPropertyOp4
 70
     1
102
RTVSPropertyOp5
 70
     1
102
RTVSPropertyOp6
 70
     1
102
RTVSPropertyOp7
 70
     1
102
RTVSPropertyOp8
 70
     1
102
RTVSPropertyOp9
 70
     1
102
RTVSPropertyOp10
 70
     1
102
RTVSPropertyOp11
 70
     1
102
RTVSPropertyOp12
 70
     1
102
RTVSPropertyOp13
 70
     1
102
RTVSPropertyOp14
 70
     1
102
RTVSPropertyOp15
 70
     1
102
RTVSPropertyOp16
 70
     1
102
RTVSPropertyOp17
 70
     1
102
RTVSPropertyOp18
 70
     1
102
RTVSPropertyOp19
 70
     1
102
RTVSPropertyOp20
 70
     1
102
RTVSPropertyOp21
 70
     1
102
RTVSPropertyOp22
 70
     1
102
RTVSPropertyOp23
 70
     1
102
RTVSPropertyOp24
 70
     1
102
RTVSPropertyOp25
 70
     1
102
RTVSPropertyOp26
 70
     1
102
RTVSPropertyOp27
 70
     1
  0
ENDSEC
  0
EOF
